  0
SECTION
  2
HEADER
  9
$ACADVER
  1
AC1014
  9
$ACADMAINTVER
 70
           0
  9
$DWGCODEPAGE
  3
DOS850
  9
$INSBASE
 10
0.0
 20
0.0
 30
0.0
  9
$EXTMIN
 10
560.989563
 20
-106.666954
 30
0.0
  9
$EXTMAX
 10
983.192627
 20
300.704468
 30
0.0
  9
$LIMMIN
 10
560.989563
 20
-106.666954
  9
$LIMMAX
 10
983.192627
 20
300.704468
  9
$ORTHOMODE
 70
           0
  9
$REGENMODE
 70
           1
  9
$FILLMODE
 70
           1
  9
$QTEXTMODE
 70
           0
  9
$MIRRTEXT
 70
           1
  9
$DRAGMODE
 70
           2
  9
$LTSCALE
 40
5.0
  9
$OSMODE
 70
           0
  9
$ATTMODE
 70
           1
  9
$TEXTSIZE
 40
0.2
  9
$TRACEWID
 40
0.05
  9
$TEXTSTYLE
  7
TXT
  9
$CLAYER
  8
0
  9
$CELTYPE
  6
CONTINUOUS
  9
$CECOLOR
 62
         256
  9
$CELTSCALE
 40
1.0
  9
$DELOBJ
 70
           1
  9
$DISPSILH
 70
           0
  9
$DIMSCALE
 40
1.0
  9
$DIMASZ
 40
3.5
  9
$DIMEXO
 40
0.0625
  9
$DIMDLI
 40
0.38
  9
$DIMRND
 40
0.0
  9
$DIMDLE
 40
0.0
  9
$DIMEXE
 40
0.18
  9
$DIMTP
 40
0.0
  9
$DIMTM
 40
0.0
  9
$DIMTXT
 40
3.5
  9
$DIMCEN
 40
0.09
  9
$DIMTSZ
 40
0.0
  9
$DIMTOL
 70
           0
  9
$DIMLIM
 70
           0
  9
$DIMTIH
 70
           1
  9
$DIMTOH
 70
           1
  9
$DIMSE1
 70
           0
  9
$DIMSE2
 70
           0
  9
$DIMTAD
 70
           0
  9
$DIMZIN
 70
           0
  9
$DIMBLK
  1

  9
$DIMASO
 70
           1
  9
$DIMSHO
 70
           1
  9
$DIMPOST
  1

  9
$DIMAPOST
  1

  9
$DIMALT
 70
           0
  9
$DIMALTD
 70
           2
  9
$DIMALTF
 40
25.4
  9
$DIMLFAC
 40
1.0
  9
$DIMTOFL
 70
           0
  9
$DIMTVP
 40
0.0
  9
$DIMTIX
 70
           0
  9
$DIMSOXD
 70
           0
  9
$DIMSAH
 70
           0
  9
$DIMBLK1
  1

  9
$DIMBLK2
  1

  9
$DIMSTYLE
  2
STANDARD
  9
$DIMCLRD
 70
           0
  9
$DIMCLRE
 70
           0
  9
$DIMCLRT
 70
           0
  9
$DIMTFAC
 40
1.0
  9
$DIMGAP
 40
0.09
  9
$DIMJUST
 70
           0
  9
$DIMSD1
 70
           0
  9
$DIMSD2
 70
           0
  9
$DIMTOLJ
 70
           1
  9
$DIMTZIN
 70
           0
  9
$DIMALTZ
 70
           0
  9
$DIMALTTZ
 70
           0
  9
$DIMFIT
 70
           3
  9
$DIMUPT
 70
           0
  9
$DIMUNIT
 70
           2
  9
$DIMDEC
 70
           4
  9
$DIMTDEC
 70
           4
  9
$DIMALTU
 70
           2
  9
$DIMALTTD
 70
           2
  9
$DIMTXSTY
  7
TXT
  9
$DIMAUNIT
 70
           0
  9
$LUNITS
 70
           2
  9
$LUPREC
 70
           2
  9
$SKETCHINC
 40
0.1
  9
$FILLETRAD
 40
0.0
  9
$AUNITS
 70
           0
  9
$AUPREC
 70
           2
  9
$MENU
  1
acad
  9
$ELEVATION
 40
0.0
  9
$PELEVATION
 40
0.0
  9
$THICKNESS
 40
0.0
  9
$LIMCHECK
 70
           0
  9
$BLIPMODE
 70
           1
  9
$CHAMFERA
 40
0.0
  9
$CHAMFERB
 40
0.0
  9
$CHAMFERC
 40
0.0
  9
$CHAMFERD
 40
0.0
  9
$SKPOLY
 70
           0
  9
$TDCREATE
 40
0.000000000
  9
$TDUPDATE
 40
0.000000000
  9
$TDINDWG
 40
0.0000000000
  9
$TDUSRTIMER
 40
0.0000000000
  9
$USRTIMER
 70
           1
  9
$ANGBASE
 50
0.0
  9
$ANGDIR
 70
           0
  9
$PDMODE
 70
           2
  9
$PDSIZE
 40
0.5
  9
$PLINEWID
 40
0.0
  9
$COORDS
 70
           0
  9
$SPLFRAME
 70
           0
  9
$SPLINETYPE
 70
           6
  9
$SPLINESEGS
 70
           8
  9
$ATTDIA
 70
           0
  9
$ATTREQ
 70
           1
  9
$HANDLING
 70
           1
  9
$HANDSEED
  5
149
  9
$SURFTAB1
 70
           6
  9
$SURFTAB2
 70
           6
  9
$SURFTYPE
 70
           6
  9
$SURFU
 70
           6
  9
$SURFV
 70
           6
  9
$UCSNAME
  2

  9
$UCSORG
 10
0.0
 20
0.0
 30
0.0
  9
$UCSXDIR
 10
1.0
 20
0.0
 30
0.0
  9
$UCSYDIR
 10
0.0
 20
1.0
 30
0.0
  9
$PUCSNAME
  2

  9
$PUCSORG
 10
0.0
 20
0.0
 30
0.0
  9
$PUCSXDIR
 10
1.0
 20
0.0
 30
0.0
  9
$PUCSYDIR
 10
0.0
 20
1.0
 30
0.0
  9
$USERI1
 70
           0
  9
$USERI2
 70
           0
  9
$USERI3
 70
           0
  9
$USERI4
 70
           0
  9
$USERI5
 70
           0
  9
$USERR1
 40
0.0
  9
$USERR2
 40
0.0
  9
$USERR3
 40
0.0
  9
$USERR4
 40
0.0
  9
$USERR5
 40
0.0
  9
$WORLDVIEW
 70
           1
  9
$SHADEDGE
 70
           3
  9
$SHADEDIF
 70
          70
  9
$TILEMODE
 70
           1
  9
$MAXACTVP
 70
          16
  9
$PINSBASE
 10
0.0
 20
0.0
 30
0.0
  9
$PLIMCHECK
 70
           0
  9
$PEXTMIN
 10
1.000000000000E+20
 20
1.000000000000E+20
 30
1.000000000000E+20
  9
$PEXTMAX
 10
-1.000000000000E+20
 20
-1.000000000000E+20
 30
-1.000000000000E+20
  9
$PLIMMIN
 10
0.0
 20
0.0
  9
$PLIMMAX
 10
12.0
 20
9.0
  9
$UNITMODE
 70
           0
  9
$VISRETAIN
 70
           0
  9
$PLINEGEN
 70
           1
  9
$PSLTSCALE
 70
           0
  9
$TREEDEPTH
 70
        3020
  9
$PICKSTYLE
 70
           1
  9
$CMLSTYLE
  2
STANDARD
  9
$CMLJUST
 70
           0
  9
$CMLSCALE
 40
1.0
  9
$PROXYGRAPHICS
 70
           0
  9
$MEASUREMENT
 70
           0
  0
ENDSEC
  0
SECTION
  2
CLASSES
  0
CLASS
  1
LWPOLYLINE
  2
AcDbPolyline
  3
"AutoCAD"
 90
        0
280
           0
281
           1
  0
CLASS
  1
IMAGE
  2
AcDbRasterImage
  3
ISM
 90
      127
280
           0
281
           1
  0
CLASS
  1
OLE2FRAME
  2
AcDbOle2Frame
  3
""
 90
        0
280
           0
281
           1
  0
CLASS
  1
HATCH
  2
AcDbHatch
  3
"ACAD_SEDONA"
 90
        0
280
           0
281
           1
  0
CLASS
  1
DICTIONARYVAR
  2
AcDbDictionaryVar
  3
"AutoCAD"
 90
        0
280
           0
281
           0
  0
CLASS
  1
RASTERVARIABLES
  2
AcDbRasterVariables
  3
ISM
 90
        0
280
           0
281
           0
  0
CLASS
  1
IMAGEDEF
  2
AcDbRasterImageDef
  3
ISM
 90
        0
280
           0
281
           0
  0
CLASS
  1
IMAGEDEF_REACTOR
  2
AcDbRasterImageDefReactor
  3
ISM
 90
        1
280
           0
281
           0
  0
CLASS
  1
IDBUFFER
  2
AcDbIdBuffer
  3
"Acad"
 90
        0
280
           0
281
           0
  0
CLASS
  1
SPATIAL_FILTER
  2
AcDbSpatialFilter
  3
"Acad"
 90
        0
280
           0
281
           0
  0
CLASS
  1
XRECORD
  2
AcDbXrecord
  3
"<Built In>"
 90
        0
280
           0
281
           0
  0
CLASS
  1
SORTENTSTABLE
  2
AcDbSortentsTable
  3
"AutoCAD"
 90
        0
280
           0
281
           0
  0
CLASS
  1
LAYER_INDEX
  2
AcDbLayerIndex
  3
"Acad"
 90
        0
280
           0
281
           0
  0
CLASS
  1
SPATIAL_INDEX
  2
AcDbSpatialIndex
  3
"Acad"
 90
        0
280
           0
281
           0
  0
CLASS
  1
OBJECT_PTR
  2
CAseDLPNTableRecord
  3
"ASE-LPNTableRecord"
 90
        1
280
           0
281
           0
  0
CLASS
  1
LAYOUT
  2
AcDbLayout
  3
"AutoCAD 2000"
 90
        1
280
           0
281
           0
  0
CLASS
  1
PLOTSETTINGS
  2
AcDbPlotSettings
  3
"AutoCAD 2000"
 90
        1
280
           0
281
           0
  0
CLASS
  1
ACDBDICTIONARYWDFLT
  2
AcDbDictionaryWithDefault
  3
"AutoCAD 2000"
 90
        1
280
           0
281
           0
  0
CLASS
  1
ACDBPLACEHOLDER
  2
AcDbPlaceHolder
  3
"AutoCAD 2000"
 90
        1
280
           0
281
           0
  0
CLASS
  1
VBA_PROJECT
  2
AcDbVbaProject
  3
"acadvba"
 90
        1
280
           0
281
           0
  0
CLASS
  1
WIPEOUT
  2
AcDbWipeout
  3
WipeOut|AutoCAD Express Tool|expresstools@autodesk.com
 90
      127
280
           0
281
           1
  0
CLASS
  1
WIPEOUTVARIABLES
  2
AcDbWipeoutVariables
  3
WipeOut|AutoCAD Express Tool|expresstools@autodesk.com
 90
        0
280
           0
281
           0
  0
CLASS
  1
RTEXT
  2
RText
  3
RText|AutoCAD Express Tool|expresstools@autodesk.com
 90
        0
280
           0
281
           1
  0
CLASS
  1
ARCALIGNEDTEXT
  2
AcDbArcAlignedText
  3
ATEXT|AutoCAD Express Tool|expresstools@autodesk.com
 90
        0
280
           0
281
           1
  0
ENDSEC
  0
SECTION
  2
TABLES
  0
TABLE
  2
VPORT
  5
7
100
AcDbSymbolTable
 70
           1
  0
VPORT
  5
15
100
AcDbSymbolTableRecord
100
AcDbViewportTableRecord
  2
*ACTIVE
 70
           0
 10
0.0
 20
0.0
 11
1.0
 21
1.0
 12
6.591288
 22
4.579184
 13
0.0
 23
0.0
 14
1.0
 24
1.0
 15
0.0
 25
0.0
 16
0.0
 26
0.0
 36
1.0
 17
0.0
 27
0.0
 37
0.0
 40
9.158369
 41
0.688564
 42
50.0
 43
0.0
 44
0.0
 50
0.0
 51
0.0
 71
           0
 72
         100
 73
           1
 74
           1
 75
           0
 76
           0
 77
           0
 78
           0
  0
ENDTAB
  0
TABLE
  2
LTYPE
  5
4
100
AcDbSymbolTable
 70
           6
  0
LTYPE
  5
11
100
AcDbSymbolTableRecord
100
AcDbLinetypeTableRecord
  2
BYBLOCK
 70
          64
  3

 72
          65
 73
           0
 40
0.0
  0
LTYPE
  5
12
100
AcDbSymbolTableRecord
100
AcDbLinetypeTableRecord
  2
BYLAYER
 70
          64
  3

 72
          65
 73
           0
 40
0.0
  0
LTYPE
  5
13
100
AcDbSymbolTableRecord
100
AcDbLinetypeTableRecord
  2
CONTINUOUS
 70
          64
  3
Solid line
 72
          65
 73
           0
 40
0.0
  0
LTYPE
  5
1D
100
AcDbSymbolTableRecord
100
AcDbLinetypeTableRecord
  2
AUSGEZOGEN
 70
           0
  3

 72
          65
 73
           2
 40
0.5
 49
0.25
 74
           0
 49
-0.25
 74
           0
  0
LTYPE
  5
1E
100
AcDbSymbolTableRecord
100
AcDbLinetypeTableRecord
  2
STRICHLINIE
 70
           0
  3

 72
          65
 73
           2
 40
0.5
 49
0.25
 74
           0
 49
-0.25
 74
           0
  0
LTYPE
  5
1F
100
AcDbSymbolTableRecord
100
AcDbLinetypeTableRecord
  2
STRICHPUNKT
 70
           0
  3

 72
          65
 73
           4
 40
1.0
 49
0.5
 74
           0
 49
-0.25
 74
           0
 49
0.0
 74
           0
 49
-0.25
 74
           0
  0
ENDTAB
  0
TABLE
  2
LAYER
  5
2
100
AcDbSymbolTable
 70
           5
  0
LAYER
  5
14
100
AcDbSymbolTableRecord
100
AcDbLayerTableRecord
  2
0
 70
           0
 62
           7
  6
CONTINUOUS
  0
LAYER
  5
20
100
AcDbSymbolTableRecord
100
AcDbLayerTableRecord
  2
LC-003-002-----0
 70
           0
 62
           7
  6
CONTINUOUS
  0
LAYER
  5
21
100
AcDbSymbolTableRecord
100
AcDbLayerTableRecord
  2
LC-006-012-----0
 70
           0
 62
           7
  6
CONTINUOUS
  0
LAYER
  5
22
100
AcDbSymbolTableRecord
100
AcDbLayerTableRecord
  2
LC-004-006-----0
 70
           0
 62
           7
  6
CONTINUOUS
  0
LAYER
  5
23
100
AcDbSymbolTableRecord
100
AcDbLayerTableRecord
  2
LC-008-003-----0
 70
           0
 62
           7
  6
CONTINUOUS
  0
ENDTAB
  0
TABLE
  2
STYLE
  5
3
100
AcDbSymbolTable
 70
           1
  0
STYLE
  5
17
100
AcDbSymbolTableRecord
100
AcDbTextStyleTableRecord
  2
TXT
 70
           0
 40
3.5
 41
1.0
 50
0.0
 71
           0
 42
3.5
  3
TXT
  4

  0
ENDTAB
  0
TABLE
  2
VIEW
  5
5
100
AcDbSymbolTable
 70
           0
  0
ENDTAB
  0
TABLE
  2
UCS
  5
6
100
AcDbSymbolTable
 70
           0
  0
ENDTAB
  0
TABLE
  2
APPID
  5
8
100
AcDbSymbolTable
 70
           2
  0
APPID
  5
16
100
AcDbSymbolTableRecord
100
AcDbRegAppTableRecord
  2
ACAD
 70
           0
  0
APPID
  5
24
100
AcDbSymbolTableRecord
100
AcDbRegAppTableRecord
  2
MegaCADPntStyle
 70
           0
  0
ENDTAB
  0
TABLE
  2
DIMSTYLE
  5
9
100
AcDbSymbolTable
 70
           1
  0
DIMSTYLE
105
18
100
AcDbSymbolTableRecord
100
AcDbDimStyleTableRecord
  2
STANDARD
 70
           0
  3

  4

  5

  6

  7

 40
1.0
 41
0.18
 42
0.0625
 43
0.38
 44
0.18
 45
0.0
 46
0.0
 47
0.0
 48
0.0
 71
           0
 72
           0
 73
           1
 74
           1
 75
           0
 76
           0
 77
           0
 78
           0
140
0.18
141
0.09
142
0.0
143
25.4
144
1.0
145
0.0
146
1.0
147
0.09
170
           0
171
           2
172
           0
173
           0
174
           0
175
           0
176
           0
177
           0
178
           0
270
           2
271
           4
272
           4
273
           2
274
           2
275
           0
280
           0
281
           0
282
           0
283
           1
284
           0
285
           0
286
           0
287
           0
288
           0
340
17
  0
ENDTAB
  0
TABLE
  2
BLOCK_RECORD
  5
1
100
AcDbSymbolTable
 70
           1
  0
BLOCK_RECORD
  5
A
100
AcDbSymbolTableRecord
100
AcDbBlockTableRecord
  2
*MODEL_SPACE
  0
BLOCK_RECORD
  5
B
100
AcDbSymbolTableRecord
100
AcDbBlockTableRecord
  2
*PAPER_SPACE
  0
BLOCK_RECORD
  5
25
102
{ACAD_XDICTIONARY
360
5C
102
}
100
AcDbSymbolTableRecord
100
AcDbBlockTableRecord
  2
ELIPPSE
  0
ENDTAB
  0
ENDSEC
  0
SECTION
  2
BLOCKS
  0
BLOCK
  5
D
100
AcDbEntity
  8
0
100
AcDbBlockBegin
  2
*MODEL_SPACE
 70
           0
 10
0.0
 20
0.0
 30
0.0
  3
*MODEL_SPACE
  1

  0
ENDBLK
  5
E
100
AcDbEntity
  8
0
100
AcDbBlockEnd
  0
BLOCK
  5
F
100
AcDbEntity
 67
           1
  8
0
100
AcDbBlockBegin
  2
*PAPER_SPACE
 70
           0
 10
0.0
 20
0.0
 30
0.0
  3
*PAPER_SPACE
  1

  0
ENDBLK
  5
10
100
AcDbEntity
 67
           1
  8
0
100
AcDbBlockEnd
  0
BLOCK
  5
146
100
AcDbEntity
  8
0
100
AcDbBlockBegin
  2
ELIPPSE
 70
          64
 10
0.0
 20
0.0
 30
0.0
  3
ELIPPSE
  1

  0
CIRCLE
  5
147
100
AcDbEntity
  8
0
  6
BYBLOCK
 62
           0
100
AcDbCircle
 10
0.0
 20
0.0
 30
0.0
 40
1.0
  0
ENDBLK
  5
148
100
AcDbEntity
  8
0
  6
BYBLOCK
 62
           0
100
AcDbBlockEnd
  0
ENDSEC
  0
SECTION
  2
ENTITIES
  0
LINE
  5
26
100
AcDbEntity
  8
LC-003-002-----0
  6
AUSGEZOGEN
 62
           1
100
AcDbLine
 10
565.029358
 20
281.872131
 30
0.0
 11
575.029358
 21
291.872131
 31
0.0
  0
LINE
  5
27
100
AcDbEntity
  8
LC-003-002-----0
  6
AUSGEZOGEN
 62
           1
100
AcDbLine
 10
685.029358
 20
291.872131
 30
0.0
 11
695.029358
 21
281.872131
 31
0.0
  0
LINE
  5
28
100
AcDbEntity
  8
LC-003-002-----0
  6
AUSGEZOGEN
 62
           1
100
AcDbLine
 10
736.597717
 20
281.872131
 30
0.0
 11
758.597717
 21
281.872131
 31
0.0
  0
LINE
  5
29
100
AcDbEntity
  8
LC-003-002-----0
  6
AUSGEZOGEN
 62
           1
100
AcDbLine
 10
778.597717
 20
281.872131
 30
0.0
 11
918.597717
 21
281.872131
 31
0.0
  0
LINE
  5
2A
100
AcDbEntity
  8
LC-003-002-----0
  6
AUSGEZOGEN
 62
           1
100
AcDbLine
 10
938.597717
 20
281.872131
 30
0.0
 11
960.597717
 21
281.872131
 31
0.0
  0
LINE
  5
2B
100
AcDbEntity
  8
LC-003-002-----0
  6
AUSGEZOGEN
 62
           1
100
AcDbLine
 10
565.029358
 20
203.872131
 30
0.0
 11
565.029358
 21
281.872131
 31
0.0
  0
LINE
  5
2C
100
AcDbEntity
  8
LC-003-002-----0
  6
AUSGEZOGEN
 62
           1
100
AcDbLine
 10
565.029358
 20
203.872131
 30
0.0
 11
695.029358
 21
203.872131
 31
0.0
  0
LINE
  5
2D
100
AcDbEntity
  8
LC-003-002-----0
  6
AUSGEZOGEN
 62
           1
100
AcDbLine
 10
575.029358
 20
291.872131
 30
0.0
 11
612.309631
 21
291.872131
 31
0.0
  0
LINE
  5
2E
100
AcDbEntity
  8
LC-003-002-----0
  6
AUSGEZOGEN
 62
           1
100
AcDbLine
 10
695.029358
 20
281.872131
 30
0.0
 11
695.029358
 21
203.872131
 31
0.0
  0
LINE
  5
2F
100
AcDbEntity
  8
LC-006-012-----0
  6
STRICHPUNKT
 62
           2
100
AcDbLine
 10
630.029358
 20
196.757614
 30
0.0
 11
630.029358
 21
300.704468
 31
0.0
  0
LINE
  5
30
100
AcDbEntity
  8
LC-006-012-----0
  6
STRICHPUNKT
 62
           2
100
AcDbLine
 10
586.590576
 20
253.872131
 30
0.0
 11
673.72467
 21
253.872131
 31
0.0
  0
CIRCLE
  5
31
100
AcDbEntity
  8
LC-003-002-----0
  6
AUSGEZOGEN
 62
           1
100
AcDbCircle
 10
630.029358
 20
253.872131
 30
0.0
 40
25.0
  0
ARC
  5
32
100
AcDbEntity
  8
LC-003-002-----0
  6
AUSGEZOGEN
 62
           1
100
AcDbCircle
 10
630.029358
 20
253.872131
 30
0.0
 40
37.5
100
AcDbArc
 50
115.000004
 51
65.000001
  0
ARC
  5
33
100
AcDbEntity
  8
LC-003-002-----0
  6
AUSGEZOGEN
 62
           1
100
AcDbCircle
 10
630.029358
 20
253.872131
 30
0.0
 40
35.0
100
AcDbArc
 50
115.000004
 51
65.000001
  0
LINE
  5
34
100
AcDbEntity
  8
LC-006-012-----0
  6
STRICHPUNKT
 62
           2
100
AcDbLine
 10
576.029358
 20
196.757614
 30
0.0
 11
576.029358
 21
300.704468
 31
0.0
  0
LINE
  5
35
100
AcDbEntity
  8
LC-004-006-----0
  6
STRICHLINIE
 62
           2
100
AcDbLine
 10
584.029358
 20
203.872131
 30
0.0
 11
584.029358
 21
238.022415
 31
0.0
  0
LINE
  5
36
100
AcDbEntity
  8
LC-004-006-----0
  6
STRICHLINIE
 62
           2
100
AcDbLine
 10
568.029358
 20
203.872131
 30
0.0
 11
568.029358
 21
237.595642
 31
0.0
  0
LINE
  5
37
100
AcDbEntity
  8
LC-004-006-----0
  6
STRICHLINIE
 62
           2
100
AcDbLine
 10
582.779358
 20
203.872131
 30
0.0
 11
582.779358
 21
279.872131
 31
0.0
  0
LINE
  5
38
100
AcDbEntity
  8
LC-004-006-----0
  6
STRICHLINIE
 62
           2
100
AcDbLine
 10
569.279358
 20
203.872131
 30
0.0
 11
569.279358
 21
279.872131
 31
0.0
  0
LINE
  5
39
100
AcDbEntity
  8
LC-004-006-----0
  6
STRICHLINIE
 62
           2
100
AcDbLine
 10
568.029358
 20
237.872131
 30
0.0
 11
584.029358
 21
237.872131
 31
0.0
  0
LINE
  5
3A
100
AcDbEntity
  8
LC-004-006-----0
  6
STRICHLINIE
 62
           2
100
AcDbLine
 10
586.029358
 20
279.872131
 30
0.0
 11
565.029358
 21
279.872131
 31
0.0
  0
LINE
  5
3B
100
AcDbEntity
  8
LC-004-006-----0
  6
STRICHLINIE
 62
           2
100
AcDbLine
 10
586.029358
 20
279.872131
 30
0.0
 11
586.029358
 21
291.872131
 31
0.0
  0
LINE
  5
3C
100
AcDbEntity
  8
LC-006-012-----0
  6
STRICHPUNKT
 62
           2
100
AcDbLine
 10
684.029358
 20
196.757614
 30
0.0
 11
684.029358
 21
300.704468
 31
0.0
  0
LINE
  5
3D
100
AcDbEntity
  8
LC-004-006-----0
  6
STRICHLINIE
 62
           2
100
AcDbLine
 10
676.029358
 20
203.872131
 30
0.0
 11
676.029358
 21
238.022415
 31
0.0
  0
LINE
  5
3E
100
AcDbEntity
  8
LC-004-006-----0
  6
STRICHLINIE
 62
           2
100
AcDbLine
 10
692.029358
 20
203.872131
 30
0.0
 11
692.029358
 21
237.595642
 31
0.0
  0
LINE
  5
3F
100
AcDbEntity
  8
LC-004-006-----0
  6
STRICHLINIE
 62
           2
100
AcDbLine
 10
677.279358
 20
203.872131
 30
0.0
 11
677.279358
 21
279.872131
 31
0.0
  0
LINE
  5
40
100
AcDbEntity
  8
LC-004-006-----0
  6
STRICHLINIE
 62
           2
100
AcDbLine
 10
690.779358
 20
203.872131
 30
0.0
 11
690.779358
 21
279.872131
 31
0.0
  0
LINE
  5
41
100
AcDbEntity
  8
LC-004-006-----0
  6
STRICHLINIE
 62
           2
100
AcDbLine
 10
692.029358
 20
237.872131
 30
0.0
 11
676.029358
 21
237.872131
 31
0.0
  0
LINE
  5
42
100
AcDbEntity
  8
LC-004-006-----0
  6
STRICHLINIE
 62
           2
100
AcDbLine
 10
674.029358
 20
279.872131
 30
0.0
 11
695.029358
 21
279.872131
 31
0.0
  0
LINE
  5
43
100
AcDbEntity
  8
LC-004-006-----0
  6
STRICHLINIE
 62
           2
100
AcDbLine
 10
674.029358
 20
279.872131
 30
0.0
 11
674.029358
 21
291.872131
 31
0.0
  0
LINE
  5
44
100
AcDbEntity
  8
LC-003-002-----0
  6
AUSGEZOGEN
 62
           1
100
AcDbLine
 10
565.029358
 20
138.099899
 30
0.0
 11
565.029358
 21
-85.900116
 31
0.0
  0
LINE
  5
45
100
AcDbEntity
  8
LC-003-002-----0
  6
AUSGEZOGEN
 62
           1
100
AcDbLine
 10
565.029358
 20
-85.900108
 30
0.0
 11
695.029358
 21
-85.900108
 31
0.0
  0
LINE
  5
46
100
AcDbEntity
  8
LC-003-002-----0
  6
AUSGEZOGEN
 62
           1
100
AcDbLine
 10
695.029358
 20
138.099899
 30
0.0
 11
695.029358
 21
-85.900116
 31
0.0
  0
LINE
  5
47
100
AcDbEntity
  8
LC-003-002-----0
  6
AUSGEZOGEN
 62
           1
100
AcDbLine
 10
565.029358
 20
138.099899
 30
0.0
 11
695.029358
 21
138.099899
 31
0.0
  0
LINE
  5
48
100
AcDbEntity
  8
LC-006-012-----0
  6
STRICHPUNKT
 62
           2
100
AcDbLine
 10
684.029358
 20
120.010971
 30
0.0
 11
684.029358
 21
92.161026
 31
0.0
  0
LINE
  5
49
100
AcDbEntity
  8
LC-006-012-----0
  6
STRICHPUNKT
 62
           2
100
AcDbLine
 10
668.947083
 20
106.099892
 30
0.0
 11
697.602356
 21
106.099892
 31
0.0
  0
CIRCLE
  5
4A
100
AcDbEntity
  8
LC-003-002-----0
  6
AUSGEZOGEN
 62
           1
100
AcDbCircle
 10
684.029358
 20
106.099892
 30
0.0
 40
6.75
  0
ARC
  5
4B
100
AcDbEntity
  8
LC-008-003-----0
  6
AUSGEZOGEN
 62
           2
100
AcDbCircle
 10
684.029358
 20
106.099892
 30
0.0
 40
8.0
100
AcDbArc
 50
81.281116
 51
9.81298
  0
ARC
  5
4C
100
AcDbEntity
  8
LC-003-002-----0
  6
AUSGEZOGEN
 62
           1
100
AcDbCircle
 10
684.029358
 20
106.099892
 30
0.0
 40
10.0
100
AcDbArc
 50
90.000003
 51
269.999997
  0
LINE
  5
4D
100
AcDbEntity
  8
LC-003-002-----0
  6
AUSGEZOGEN
 62
           1
100
AcDbLine
 10
684.029358
 20
116.099892
 30
0.0
 11
695.029358
 21
116.099892
 31
0.0
  0
LINE
  5
4E
100
AcDbEntity
  8
LC-003-002-----0
  6
AUSGEZOGEN
 62
           1
100
AcDbLine
 10
684.029358
 20
96.099892
 30
0.0
 11
695.029358
 21
96.099892
 31
0.0
  0
LINE
  5
4F
100
AcDbEntity
  8
LC-006-012-----0
  6
STRICHPUNKT
 62
           2
100
AcDbLine
 10
576.029358
 20
120.010971
 30
0.0
 11
576.029358
 21
92.161026
 31
0.0
  0
LINE
  5
50
100
AcDbEntity
  8
LC-006-012-----0
  6
STRICHPUNKT
 62
           2
100
AcDbLine
 10
591.111572
 20
106.099892
 30
0.0
 11
562.45636
 21
106.099892
 31
0.0
  0
CIRCLE
  5
51
100
AcDbEntity
  8
LC-003-002-----0
  6
AUSGEZOGEN
 62
           1
100
AcDbCircle
 10
576.029358
 20
106.099892
 30
0.0
 40
6.75
  0
ARC
  5
52
100
AcDbEntity
  8
LC-008-003-----0
  6
AUSGEZOGEN
 62
           2
100
AcDbCircle
 10
576.029358
 20
106.099892
 30
0.0
 40
8.0
100
AcDbArc
 50
170.187018
 51
98.718889
  0
ARC
  5
53
100
AcDbEntity
  8
LC-003-002-----0
  6
AUSGEZOGEN
 62
           1
100
AcDbCircle
 10
576.029358
 20
106.099892
 30
0.0
 40
10.0
100
AcDbArc
 50
269.999997
 51
90.000003
  0
LINE
  5
54
100
AcDbEntity
  8
LC-003-002-----0
  6
AUSGEZOGEN
 62
           1
100
AcDbLine
 10
576.029358
 20
116.099892
 30
0.0
 11
565.029358
 21
116.099892
 31
0.0
  0
LINE
  5
55
100
AcDbEntity
  8
LC-003-002-----0
  6
AUSGEZOGEN
 62
           1
100
AcDbLine
 10
576.029358
 20
96.099892
 30
0.0
 11
565.029358
 21
96.099892
 31
0.0
  0
LINE
  5
56
100
AcDbEntity
  8
LC-006-012-----0
  6
STRICHPUNKT
 62
           2
100
AcDbLine
 10
684.029358
 20
-67.81118
 30
0.0
 11
684.029358
 21
-39.961243
 31
0.0
  0
LINE
  5
57
100
AcDbEntity
  8
LC-006-012-----0
  6
STRICHPUNKT
 62
           2
100
AcDbLine
 10
668.947083
 20
-53.900105
 30
0.0
 11
697.602356
 21
-53.900105
 31
0.0
  0
CIRCLE
  5
58
100
AcDbEntity
  8
LC-003-002-----0
  6
AUSGEZOGEN
 62
           1
100
AcDbCircle
 10
684.029358
 20
-53.900105
 30
0.0
 40
6.75
  0
ARC
  5
59
100
AcDbEntity
  8
LC-008-003-----0
  6
AUSGEZOGEN
 62
           2
100
AcDbCircle
 10
684.029358
 20
-53.900105
 30
0.0
 40
8.0
100
AcDbArc
 50
350.18702
 51
278.718884
  0
ARC
  5
5A
100
AcDbEntity
  8
LC-003-002-----0
  6
AUSGEZOGEN
 62
           1
100
AcDbCircle
 10
684.029358
 20
-53.900105
 30
0.0
 40
10.0
100
AcDbArc
 50
90.000003
 51
269.999997
  0
LINE
  5
5B
100
AcDbEntity
  8
LC-003-002-----0
  6
AUSGEZOGEN
 62
           1
100
AcDbLine
 10
684.029358
 20
-63.900105
 30
0.0
 11
695.029358
 21
-63.900105
 31
0.0
  0
LINE
  5
5C
100
AcDbEntity
  8
LC-003-002-----0
  6
AUSGEZOGEN
 62
           1
100
AcDbLine
 10
682.029358
 20
-43.900105
 30
0.0
 11
695.029358
 21
-43.900105
 31
0.0
  0
LINE
  5
5D
100
AcDbEntity
  8
LC-006-012-----0
  6
STRICHPUNKT
 62
           2
100
AcDbLine
 10
576.029358
 20
-67.81118
 30
0.0
 11
576.029358
 21
-39.961243
 31
0.0
  0
LINE
  5
5E
100
AcDbEntity
  8
LC-006-012-----0
  6
STRICHPUNKT
 62
           2
100
AcDbLine
 10
591.111572
 20
-53.900105
 30
0.0
 11
562.45636
 21
-53.900105
 31
0.0
  0
CIRCLE
  5
5F
100
AcDbEntity
  8
LC-003-002-----0
  6
AUSGEZOGEN
 62
           1
100
AcDbCircle
 10
576.029358
 20
-53.900105
 30
0.0
 40
6.75
  0
ARC
  5
60
100
AcDbEntity
  8
LC-008-003-----0
  6
AUSGEZOGEN
 62
           2
100
AcDbCircle
 10
576.029358
 20
-53.900105
 30
0.0
 40
8.0
100
AcDbArc
 50
261.281111
 51
189.812982
  0
ARC
  5
61
100
AcDbEntity
  8
LC-003-002-----0
  6
AUSGEZOGEN
 62
           1
100
AcDbCircle
 10
576.029358
 20
-53.900105
 30
0.0
 40
10.0
100
AcDbArc
 50
269.999997
 51
90.000003
  0
LINE
  5
62
100
AcDbEntity
  8
LC-003-002-----0
  6
AUSGEZOGEN
 62
           1
100
AcDbLine
 10
576.029358
 20
-63.900105
 30
0.0
 11
565.029358
 21
-63.900105
 31
0.0
  0
LINE
  5
63
100
AcDbEntity
  8
LC-003-002-----0
  6
AUSGEZOGEN
 62
           1
100
AcDbLine
 10
576.029358
 20
-43.900105
 30
0.0
 11
565.029358
 21
-43.900105
 31
0.0
  0
LINE
  5
64
100
AcDbEntity
  8
LC-004-006-----0
  6
STRICHLINIE
 62
           2
100
AcDbLine
 10
592.529358
 20
138.099899
 30
0.0
 11
592.529358
 21
38.099892
 31
0.0
  0
LINE
  5
65
100
AcDbEntity
  8
LC-004-006-----0
  6
STRICHLINIE
 62
           2
100
AcDbLine
 10
667.529358
 20
138.099899
 30
0.0
 11
667.529358
 21
38.099892
 31
0.0
  0
LINE
  5
66
100
AcDbEntity
  8
LC-004-006-----0
  6
STRICHLINIE
 62
           2
100
AcDbLine
 10
592.529358
 20
38.099895
 30
0.0
 11
612.309631
 21
38.099895
 31
0.0
  0
LINE
  5
67
100
AcDbEntity
  8
LC-004-006-----0
  6
STRICHLINIE
 62
           2
100
AcDbLine
 10
592.529358
 20
14.099894
 30
0.0
 11
612.309631
 21
14.099894
 31
0.0
  0
LINE
  5
68
100
AcDbEntity
  8
LC-003-002-----0
  6
AUSGEZOGEN
 62
           1
100
AcDbLine
 10
575.029358
 20
138.099899
 30
0.0
 11
575.029358
 21
116.099884
 31
0.0
  0
LINE
  5
69
100
AcDbEntity
  8
LC-003-002-----0
  6
AUSGEZOGEN
 62
           1
100
AcDbLine
 10
575.029358
 20
-63.900105
 30
0.0
 11
575.029358
 21
-85.900108
 31
0.0
  0
LINE
  5
6A
100
AcDbEntity
  8
LC-003-002-----0
  6
AUSGEZOGEN
 62
           1
100
AcDbLine
 10
575.029358
 20
96.099892
 30
0.0
 11
575.029358
 21
-43.900101
 31
0.0
  0
LINE
  5
6B
100
AcDbEntity
  8
LC-003-002-----0
  6
AUSGEZOGEN
 62
           1
100
AcDbLine
 10
685.029358
 20
138.099899
 30
0.0
 11
685.029358
 21
116.099884
 31
0.0
  0
LINE
  5
6C
100
AcDbEntity
  8
LC-003-002-----0
  6
AUSGEZOGEN
 62
           1
100
AcDbLine
 10
685.029358
 20
96.099892
 30
0.0
 11
685.029358
 21
-43.900101
 31
0.0
  0
LINE
  5
6D
100
AcDbEntity
  8
LC-003-002-----0
  6
AUSGEZOGEN
 62
           1
100
AcDbLine
 10
685.029358
 20
-63.900105
 30
0.0
 11
685.029358
 21
-85.900108
 31
0.0
  0
LINE
  5
6E
100
AcDbEntity
  8
LC-006-012-----0
  6
STRICHPUNKT
 62
           2
100
AcDbLine
 10
630.029358
 20
156.335083
 30
0.0
 11
630.029358
 21
-106.666954
 31
0.0
  0
LINE
  5
6F
100
AcDbEntity
  8
LC-003-002-----0
  6
AUSGEZOGEN
 62
           1
100
AcDbLine
 10
605.029358
 20
151.943115
 30
0.0
 11
605.029358
 21
138.099899
 31
0.0
  0
LINE
  5
70
100
AcDbEntity
  8
LC-003-002-----0
  6
AUSGEZOGEN
 62
           1
100
AcDbLine
 10
655.029358
 20
151.187531
 30
0.0
 11
655.029358
 21
138.099899
 31
0.0
  0
LINE
  5
71
100
AcDbEntity
  8
LC-008-003-----0
  6
AUSGEZOGEN
 62
           2
100
AcDbLine
 10
605.029358
 20
151.943115
 30
0.0
 11
612.537048
 21
149.957031
 31
0.0
  0
LINE
  5
72
100
AcDbEntity
  8
LC-008-003-----0
  6
AUSGEZOGEN
 62
           2
100
AcDbLine
 10
612.537048
 20
149.957031
 30
0.0
 11
639.231873
 21
152.083054
 31
0.0
  0
LINE
  5
73
100
AcDbEntity
  8
LC-008-003-----0
  6
AUSGEZOGEN
 62
           2
100
AcDbLine
 10
639.231873
 20
152.083054
 30
0.0
 11
655.029358
 21
151.187531
 31
0.0
  0
LINE
  5
74
100
AcDbEntity
  8
LC-004-006-----0
  6
STRICHLINIE
 62
           2
100
AcDbLine
 10
605.029358
 20
138.099899
 30
0.0
 11
605.029358
 21
-85.900116
 31
0.0
  0
LINE
  5
75
100
AcDbEntity
  8
LC-004-006-----0
  6
STRICHLINIE
 62
           2
100
AcDbLine
 10
655.029358
 20
138.099899
 30
0.0
 11
655.029358
 21
-85.900116
 31
0.0
  0
LINE
  5
76
100
AcDbEntity
  8
LC-008-003-----0
  6
AUSGEZOGEN
 62
           2
100
AcDbLine
 10
605.029358
 20
-99.743324
 30
0.0
 11
612.537048
 21
-97.75724
 31
0.0
  0
LINE
  5
77
100
AcDbEntity
  8
LC-008-003-----0
  6
AUSGEZOGEN
 62
           2
100
AcDbLine
 10
612.537048
 20
-97.75724
 30
0.0
 11
639.231873
 21
-99.883263
 31
0.0
  0
LINE
  5
78
100
AcDbEntity
  8
LC-008-003-----0
  6
AUSGEZOGEN
 62
           2
100
AcDbLine
 10
639.231873
 20
-99.883263
 30
0.0
 11
655.029358
 21
-98.987747
 31
0.0
  0
LINE
  5
79
100
AcDbEntity
  8
LC-003-002-----0
  6
AUSGEZOGEN
 62
           1
100
AcDbLine
 10
605.029358
 20
-85.900108
 30
0.0
 11
605.029358
 21
-99.743324
 31
0.0
  0
LINE
  5
7A
100
AcDbEntity
  8
LC-003-002-----0
  6
AUSGEZOGEN
 62
           1
100
AcDbLine
 10
655.029358
 20
-85.900108
 30
0.0
 11
655.029358
 21
-98.987747
 31
0.0
  0
LINE
  5
7B
100
AcDbEntity
  8
LC-003-002-----0
  6
AUSGEZOGEN
 62
           1
100
AcDbLine
 10
736.597717
 20
203.872131
 30
0.0
 11
960.597717
 21
203.872131
 31
0.0
  0
LINE
  5
7C
100
AcDbEntity
  8
LC-003-002-----0
  6
AUSGEZOGEN
 62
           1
100
AcDbLine
 10
960.597717
 20
203.872131
 30
0.0
 11
960.597717
 21
291.872131
 31
0.0
  0
LINE
  5
7D
100
AcDbEntity
  8
LC-003-002-----0
  6
AUSGEZOGEN
 62
           1
100
AcDbLine
 10
736.597717
 20
291.872131
 30
0.0
 11
960.597717
 21
291.872131
 31
0.0
  0
LINE
  5
7E
100
AcDbEntity
  8
LC-003-002-----0
  6
AUSGEZOGEN
 62
           1
100
AcDbLine
 10
736.597717
 20
203.872131
 30
0.0
 11
736.597717
 21
291.872131
 31
0.0
  0
LINE
  5
7F
100
AcDbEntity
  8
LC-003-002-----0
  6
AUSGEZOGEN
 62
           1
100
AcDbLine
 10
918.597717
 20
279.872131
 30
0.0
 11
918.597717
 21
291.872131
 31
0.0
  0
LINE
  5
80
100
AcDbEntity
  8
LC-006-012-----0
  6
STRICHPUNKT
 62
           2
100
AcDbLine
 10
928.597717
 20
196.757614
 30
0.0
 11
928.597717
 21
300.704468
 31
0.0
  0
LINE
  5
81
100
AcDbEntity
  8
LC-004-006-----0
  6
STRICHLINIE
 62
           2
100
AcDbLine
 10
936.597717
 20
203.872131
 30
0.0
 11
936.597717
 21
238.022415
 31
0.0
  0
LINE
  5
82
100
AcDbEntity
  8
LC-004-006-----0
  6
STRICHLINIE
 62
           2
100
AcDbLine
 10
920.597717
 20
203.872131
 30
0.0
 11
920.597717
 21
237.595642
 31
0.0
  0
LINE
  5
83
100
AcDbEntity
  8
LC-004-006-----0
  6
STRICHLINIE
 62
           2
100
AcDbLine
 10
935.347717
 20
203.872131
 30
0.0
 11
935.347717
 21
279.872131
 31
0.0
  0
LINE
  5
84
100
AcDbEntity
  8
LC-004-006-----0
  6
STRICHLINIE
 62
           2
100
AcDbLine
 10
921.847717
 20
203.872131
 30
0.0
 11
921.847717
 21
279.872131
 31
0.0
  0
LINE
  5
85
100
AcDbEntity
  8
LC-004-006-----0
  6
STRICHLINIE
 62
           2
100
AcDbLine
 10
920.597717
 20
237.872131
 30
0.0
 11
936.597717
 21
237.872131
 31
0.0
  0
LINE
  5
86
100
AcDbEntity
  8
LC-006-012-----0
  6
STRICHPUNKT
 62
           2
100
AcDbLine
 10
714.312561
 20
253.872131
 30
0.0
 11
983.192627
 21
253.872131
 31
0.0
  0
LINE
  5
87
100
AcDbEntity
  8
LC-003-002-----0
  6
AUSGEZOGEN
 62
           1
100
AcDbLine
 10
938.597717
 20
279.872131
 30
0.0
 11
938.597717
 21
291.872131
 31
0.0
  0
LINE
  5
88
100
AcDbEntity
  8
LC-003-002-----0
  6
AUSGEZOGEN
 62
           1
100
AcDbLine
 10
938.597717
 20
279.872131
 30
0.0
 11
918.597717
 21
279.872131
 31
0.0
  0
LINE
  5
89
100
AcDbEntity
  8
LC-006-012-----0
  6
STRICHPUNKT
 62
           2
100
AcDbLine
 10
768.597717
 20
196.757614
 30
0.0
 11
768.597717
 21
300.704468
 31
0.0
  0
LINE
  5
8A
100
AcDbEntity
  8
LC-004-006-----0
  6
STRICHLINIE
 62
           2
100
AcDbLine
 10
776.597717
 20
237.872131
 30
0.0
 11
760.597717
 21
237.872131
 31
0.0
  0
LINE
  5
8B
100
AcDbEntity
  8
LC-004-006-----0
  6
STRICHLINIE
 62
           2
100
AcDbLine
 10
775.347717
 20
203.872131
 30
0.0
 11
775.347717
 21
279.872131
 31
0.0
  0
LINE
  5
8C
100
AcDbEntity
  8
LC-004-006-----0
  6
STRICHLINIE
 62
           2
100
AcDbLine
 10
761.847717
 20
203.872131
 30
0.0
 11
761.847717
 21
279.872131
 31
0.0
  0
LINE
  5
8D
100
AcDbEntity
  8
LC-004-006-----0
  6
STRICHLINIE
 62
           2
100
AcDbLine
 10
776.597717
 20
203.872131
 30
0.0
 11
776.597717
 21
237.595642
 31
0.0
  0
LINE
  5
8E
100
AcDbEntity
  8
LC-004-006-----0
  6
STRICHLINIE
 62
           2
100
AcDbLine
 10
760.597717
 20
203.872131
 30
0.0
 11
760.597717
 21
238.022415
 31
0.0
  0
LINE
  5
8F
100
AcDbEntity
  8
LC-003-002-----0
  6
AUSGEZOGEN
 62
           1
100
AcDbLine
 10
718.106384
 20
278.872131
 30
0.0
 11
736.597717
 21
278.872131
 31
0.0
  0
LINE
  5
90
100
AcDbEntity
  8
LC-003-002-----0
  6
AUSGEZOGEN
 62
           1
100
AcDbLine
 10
758.597717
 20
279.872131
 30
0.0
 11
778.597717
 21
279.872131
 31
0.0
  0
LINE
  5
91
100
AcDbEntity
  8
LC-003-002-----0
  6
AUSGEZOGEN
 62
           1
100
AcDbLine
 10
778.597717
 20
279.872131
 30
0.0
 11
778.597717
 21
291.872131
 31
0.0
  0
LINE
  5
92
100
AcDbEntity
  8
LC-003-002-----0
  6
AUSGEZOGEN
 62
           1
100
AcDbLine
 10
758.597717
 20
279.872131
 30
0.0
 11
758.597717
 21
291.872131
 31
0.0
  0
LINE
  5
93
100
AcDbEntity
  8
LC-004-006-----0
  6
STRICHLINIE
 62
           2
100
AcDbLine
 10
736.597717
 20
287.858673
 30
0.0
 11
836.597717
 21
287.858673
 31
0.0
  0
LINE
  5
94
100
AcDbEntity
  8
LC-004-006-----0
  6
STRICHLINIE
 62
           2
100
AcDbLine
 10
736.597717
 20
216.372131
 30
0.0
 11
836.597717
 21
216.372131
 31
0.0
  0
LINE
  5
95
100
AcDbEntity
  8
LC-004-006-----0
  6
STRICHLINIE
 62
           2
100
AcDbLine
 10
836.597717
 20
216.372131
 30
0.0
 11
836.597717
 21
287.858673
 31
0.0
  0
LINE
  5
96
100
AcDbEntity
  8
LC-004-006-----0
  6
STRICHLINIE
 62
           2
100
AcDbLine
 10
860.597717
 20
216.372131
 30
0.0
 11
860.597717
 21
287.858673
 31
0.0
  0
LINE
  5
97
100
AcDbEntity
  8
LC-003-002-----0
  6
AUSGEZOGEN
 62
           1
100
AcDbLine
 10
720.928467
 20
228.872131
 30
0.0
 11
736.597717
 21
228.872131
 31
0.0
  0
LINE
  5
98
100
AcDbEntity
  8
LC-008-003-----0
  6
AUSGEZOGEN
 62
           2
100
AcDbLine
 10
979.911926
 20
228.872131
 30
0.0
 11
981.132263
 21
241.139511
 31
0.0
  0
LINE
  5
99
100
AcDbEntity
  8
LC-008-003-----0
  6
AUSGEZOGEN
 62
           2
100
AcDbLine
 10
981.132263
 20
241.139511
 30
0.0
 11
977.52655
 21
264.440613
 31
0.0
  0
LINE
  5
9A
100
AcDbEntity
  8
LC-008-003-----0
  6
AUSGEZOGEN
 62
           2
100
AcDbLine
 10
977.52655
 20
264.440613
 30
0.0
 11
979.070251
 21
278.872131
 31
0.0
  0
LINE
  5
9B
100
AcDbEntity
  8
LC-008-003-----0
  6
AUSGEZOGEN
 62
           2
100
AcDbLine
 10
720.928467
 20
228.872131
 30
0.0
 11
721.523926
 21
239.197754
 31
0.0
  0
LINE
  5
9C
100
AcDbEntity
  8
LC-008-003-----0
  6
AUSGEZOGEN
 62
           2
100
AcDbLine
 10
721.523926
 20
239.197754
 30
0.0
 11
718.43335
 21
262.110504
 31
0.0
  0
LINE
  5
9D
100
AcDbEntity
  8
LC-008-003-----0
  6
AUSGEZOGEN
 62
           2
100
AcDbLine
 10
718.43335
 20
262.110504
 30
0.0
 11
718.106384
 21
278.872131
 31
0.0
  0
LINE
  5
9E
100
AcDbEntity
  8
LC-004-006-----0
  6
STRICHLINIE
 62
           2
100
AcDbLine
 10
736.597717
 20
278.872131
 30
0.0
 11
960.597717
 21
278.872131
 31
0.0
  0
LINE
  5
9F
100
AcDbEntity
  8
LC-004-006-----0
  6
STRICHLINIE
 62
           2
100
AcDbLine
 10
736.597717
 20
228.872131
 30
0.0
 11
960.597717
 21
228.872131
 31
0.0
  0
LINE
  5
A0
100
AcDbEntity
  8
LC-003-002-----0
  6
AUSGEZOGEN
 62
           1
100
AcDbLine
 10
960.597717
 20
278.872131
 30
0.0
 11
979.070251
 21
278.872131
 31
0.0
  0
LINE
  5
A1
100
AcDbEntity
  8
LC-003-002-----0
  6
AUSGEZOGEN
 62
           1
100
AcDbLine
 10
960.597717
 20
228.872131
 30
0.0
 11
979.911926
 21
228.872131
 31
0.0
  0
LINE
  5
A2
100
AcDbEntity
  8
LC-003-002-----0
  6
AUSGEZOGEN
 62
           1
100
AcDbLine
 10
640.594788
 20
276.529816
 30
0.0
 11
645.877563
 21
287.858673
 31
0.0
  0
LINE
  5
A3
100
AcDbEntity
  8
LC-003-002-----0
  6
AUSGEZOGEN
 62
           1
100
AcDbLine
 10
619.463867
 20
276.529816
 30
0.0
 11
614.181152
 21
287.858673
 31
0.0
  0
LINE
  5
A4
100
AcDbEntity
  8
LC-003-002-----0
  6
AUSGEZOGEN
 62
           1
100
AcDbLine
 10
647.749023
 20
291.872131
 30
0.0
 11
685.029358
 21
291.872131
 31
0.0
  0
LINE
  5
A5
100
AcDbEntity
  8
LC-003-002-----0
  6
AUSGEZOGEN
 62
           1
100
AcDbLine
 10
614.181152
 20
287.858673
 30
0.0
 11
612.309631
 21
291.872131
 31
0.0
  0
LINE
  5
A6
100
AcDbEntity
  8
LC-003-002-----0
  6
AUSGEZOGEN
 62
           1
100
AcDbLine
 10
645.877563
 20
287.858673
 30
0.0
 11
647.749023
 21
291.872131
 31
0.0
  0
LINE
  5
A7
100
AcDbEntity
  8
LC-003-002-----0
  6
AUSGEZOGEN
 62
           1
100
AcDbLine
 10
612.309631
 20
138.099899
 30
0.0
 11
612.309631
 21
-85.900116
 31
0.0
  0
LINE
  5
A8
100
AcDbEntity
  8
LC-003-002-----0
  6
AUSGEZOGEN
 62
           1
100
AcDbLine
 10
614.181152
 20
138.099899
 30
0.0
 11
614.181152
 21
38.099892
 31
0.0
  0
LINE
  5
A9
100
AcDbEntity
  8
LC-003-002-----0
  6
AUSGEZOGEN
 62
           1
100
AcDbLine
 10
647.749023
 20
138.099899
 30
0.0
 11
647.749023
 21
-85.900116
 31
0.0
  0
LINE
  5
AA
100
AcDbEntity
  8
LC-003-002-----0
  6
AUSGEZOGEN
 62
           1
100
AcDbLine
 10
645.877563
 20
138.099899
 30
0.0
 11
645.877563
 21
38.099892
 31
0.0
  0
LINE
  5
AB
100
AcDbEntity
  8
LC-003-002-----0
  6
AUSGEZOGEN
 62
           1
100
AcDbLine
 10
619.463867
 20
138.099899
 30
0.0
 11
619.463867
 21
38.099892
 31
0.0
  0
LINE
  5
AC
100
AcDbEntity
  8
LC-003-002-----0
  6
AUSGEZOGEN
 62
           1
100
AcDbLine
 10
640.594788
 20
138.099899
 30
0.0
 11
640.594788
 21
38.099892
 31
0.0
  0
LINE
  5
AD
100
AcDbEntity
  8
LC-003-002-----0
  6
AUSGEZOGEN
 62
           1
100
AcDbLine
 10
619.463867
 20
14.099894
 30
0.0
 11
619.463867
 21
-85.900108
 31
0.0
  0
LINE
  5
AE
100
AcDbEntity
  8
LC-003-002-----0
  6
AUSGEZOGEN
 62
           1
100
AcDbLine
 10
614.181152
 20
14.099894
 30
0.0
 11
614.181152
 21
-85.900108
 31
0.0
  0
LINE
  5
AF
100
AcDbEntity
  8
LC-003-002-----0
  6
AUSGEZOGEN
 62
           1
100
AcDbLine
 10
640.594788
 20
14.099894
 30
0.0
 11
640.594788
 21
-85.900108
 31
0.0
  0
LINE
  5
B0
100
AcDbEntity
  8
LC-003-002-----0
  6
AUSGEZOGEN
 62
           1
100
AcDbLine
 10
645.877563
 20
14.099894
 30
0.0
 11
645.877563
 21
-85.900108
 31
0.0
  0
LINE
  5
B1
100
AcDbEntity
  8
LC-003-002-----0
  6
AUSGEZOGEN
 62
           1
100
AcDbLine
 10
612.309631
 20
38.099895
 30
0.0
 11
619.463867
 21
38.099895
 31
0.0
  0
LINE
  5
B2
100
AcDbEntity
  8
LC-004-006-----0
  6
STRICHLINIE
 62
           2
100
AcDbLine
 10
836.597717
 20
216.372131
 30
0.0
 11
860.597717
 21
216.372131
 31
0.0
  0
LINE
  5
B3
100
AcDbEntity
  8
LC-004-006-----0
  6
STRICHLINIE
 62
           2
100
AcDbLine
 10
860.597717
 20
216.372131
 30
0.0
 11
960.597717
 21
216.372131
 31
0.0
  0
LINE
  5
B4
100
AcDbEntity
  8
LC-004-006-----0
  6
STRICHLINIE
 62
           2
100
AcDbLine
 10
736.597717
 20
276.529816
 30
0.0
 11
836.597717
 21
276.529816
 31
0.0
  0
LINE
  5
B5
100
AcDbEntity
  8
LC-004-006-----0
  6
STRICHLINIE
 62
           2
100
AcDbLine
 10
860.597717
 20
287.858673
 30
0.0
 11
960.597717
 21
287.858673
 31
0.0
  0
LINE
  5
B6
100
AcDbEntity
  8
LC-004-006-----0
  6
STRICHLINIE
 62
           2
100
AcDbLine
 10
592.529358
 20
38.099895
 30
0.0
 11
592.529358
 21
14.099892
 31
0.0
  0
LINE
  5
B7
100
AcDbEntity
  8
LC-004-006-----0
  6
STRICHLINIE
 62
           2
100
AcDbLine
 10
592.529358
 20
14.099894
 30
0.0
 11
592.529358
 21
-85.900108
 31
0.0
  0
LINE
  5
B8
100
AcDbEntity
  8
LC-004-006-----0
  6
STRICHLINIE
 62
           2
100
AcDbLine
 10
667.529358
 20
38.099895
 30
0.0
 11
667.529358
 21
14.099892
 31
0.0
  0
LINE
  5
B9
100
AcDbEntity
  8
LC-004-006-----0
  6
STRICHLINIE
 62
           2
100
AcDbLine
 10
667.529358
 20
14.099894
 30
0.0
 11
667.529358
 21
-85.900108
 31
0.0
  0
LINE
  5
BA
100
AcDbEntity
  8
LC-004-006-----0
  6
STRICHLINIE
 62
           2
100
AcDbLine
 10
619.463867
 20
38.099895
 30
0.0
 11
640.594788
 21
38.099895
 31
0.0
  0
LINE
  5
BB
100
AcDbEntity
  8
LC-003-002-----0
  6
AUSGEZOGEN
 62
           1
100
AcDbLine
 10
612.309631
 20
14.099894
 30
0.0
 11
619.463867
 21
14.099894
 31
0.0
  0
LINE
  5
BC
100
AcDbEntity
  8
LC-004-006-----0
  6
STRICHLINIE
 62
           2
100
AcDbLine
 10
619.463867
 20
14.099894
 30
0.0
 11
640.594788
 21
14.099894
 31
0.0
  0
LINE
  5
BD
100
AcDbEntity
  8
LC-003-002-----0
  6
AUSGEZOGEN
 62
           1
100
AcDbLine
 10
640.594788
 20
14.099894
 30
0.0
 11
647.749023
 21
14.099894
 31
0.0
  0
LINE
  5
BE
100
AcDbEntity
  8
LC-004-006-----0
  6
STRICHLINIE
 62
           2
100
AcDbLine
 10
647.749023
 20
14.099894
 30
0.0
 11
667.529358
 21
14.099894
 31
0.0
  0
LINE
  5
BF
100
AcDbEntity
  8
LC-003-002-----0
  6
AUSGEZOGEN
 62
           1
100
AcDbLine
 10
640.594788
 20
38.099895
 30
0.0
 11
647.749023
 21
38.099895
 31
0.0
  0
LINE
  5
C0
100
AcDbEntity
  8
LC-004-006-----0
  6
STRICHLINIE
 62
           2
100
AcDbLine
 10
647.749023
 20
38.099895
 30
0.0
 11
667.529358
 21
38.099895
 31
0.0
  0
LINE
  5
C1
100
AcDbEntity
  8
LC-006-012-----0
  6
STRICHPUNKT
 62
           2
100
AcDbLine
 10
699.069092
 20
251.372131
 30
0.0
 11
662.181458
 21
251.372131
 31
0.0
  0
LINE
  5
C2
100
AcDbEntity
  8
LC-004-006-----0
  6
STRICHLINIE
 62
           2
100
AcDbLine
 10
668.279358
 20
248.372131
 30
0.0
 11
675.529358
 21
248.372131
 31
0.0
  0
LINE
  5
C3
100
AcDbEntity
  8
LC-004-006-----0
  6
STRICHLINIE
 62
           2
100
AcDbLine
 10
668.279358
 20
254.372131
 30
0.0
 11
675.529358
 21
254.372131
 31
0.0
  0
LINE
  5
C4
100
AcDbEntity
  8
LC-004-006-----0
  6
STRICHLINIE
 62
           2
100
AcDbLine
 10
675.529358
 20
248.872131
 30
0.0
 11
668.029358
 21
248.872131
 31
0.0
  0
LINE
  5
C5
100
AcDbEntity
  8
LC-004-006-----0
  6
STRICHLINIE
 62
           2
100
AcDbLine
 10
675.529358
 20
253.872131
 30
0.0
 11
668.029358
 21
253.872131
 31
0.0
  0
LINE
  5
C6
100
AcDbEntity
  8
LC-004-006-----0
  6
STRICHLINIE
 62
           2
100
AcDbLine
 10
678.529358
 20
248.172134
 30
0.0
 11
678.529358
 21
254.443512
 31
0.0
  0
LINE
  5
C7
100
AcDbEntity
  8
LC-004-006-----0
  6
STRICHLINIE
 62
           2
100
AcDbLine
 10
676.029358
 20
243.872131
 30
0.0
 11
676.029358
 21
258.872131
 31
0.0
  0
LINE
  5
C8
100
AcDbEntity
  8
LC-004-006-----0
  6
STRICHLINIE
 62
           2
100
AcDbLine
 10
663.72937
 20
249.372131
 30
0.0
 11
663.72937
 21
253.372131
 31
0.0
  0
LINE
  5
C9
100
AcDbEntity
  8
LC-004-006-----0
  6
STRICHLINIE
 62
           2
100
AcDbLine
 10
678.31665
 20
247.472137
 30
0.0
 11
676.029358
 21
247.472137
 31
0.0
  0
LINE
  5
CA
100
AcDbEntity
  8
LC-004-006-----0
  6
STRICHLINIE
 62
           2
100
AcDbLine
 10
678.31665
 20
255.272141
 30
0.0
 11
676.029358
 21
255.272141
 31
0.0
  0
LINE
  5
CB
100
AcDbEntity
  8
LC-004-006-----0
  6
STRICHLINIE
 62
           2
100
AcDbLine
 10
668.029358
 20
248.622131
 30
0.0
 11
668.029358
 21
254.122131
 31
0.0
  0
LINE
  5
CC
100
AcDbEntity
  8
LC-004-006-----0
  6
STRICHLINIE
 62
           2
100
AcDbLine
 10
668.029358
 20
248.622131
 30
0.0
 11
668.279358
 21
248.372131
 31
0.0
  0
LINE
  5
CD
100
AcDbEntity
  8
LC-004-006-----0
  6
STRICHLINIE
 62
           2
100
AcDbLine
 10
668.029358
 20
254.122131
 30
0.0
 11
668.279358
 21
254.372131
 31
0.0
  0
LINE
  5
CE
100
AcDbEntity
  8
LC-004-006-----0
  6
STRICHLINIE
 62
           2
100
AcDbLine
 10
668.279358
 20
248.372131
 30
0.0
 11
668.279358
 21
254.372131
 31
0.0
  0
LINE
  5
CF
100
AcDbEntity
  8
LC-004-006-----0
  6
STRICHLINIE
 62
           2
100
AcDbLine
 10
668.029358
 20
249.122131
 30
0.0
 11
663.97937
 21
249.122131
 31
0.0
  0
LINE
  5
D0
100
AcDbEntity
  8
LC-004-006-----0
  6
STRICHLINIE
 62
           2
100
AcDbLine
 10
668.029358
 20
253.622131
 30
0.0
 11
663.97937
 21
253.622131
 31
0.0
  0
ARC
  5
D1
100
AcDbEntity
  8
LC-004-006-----0
  6
STRICHLINIE
 62
           2
100
AcDbCircle
 10
663.97937
 20
249.372131
 30
0.0
 40
0.25
100
AcDbArc
 50
180.000008999999
 51
269.999996999989
  0
ARC
  5
D2
100
AcDbEntity
  8
LC-004-006-----0
  6
STRICHLINIE
 62
           2
100
AcDbCircle
 10
663.97937
 20
253.372131
 30
0.0
 40
0.25
100
AcDbArc
 50
90.000003000011
 51
180.000008999999
  0
LINE
  5
D3
100
AcDbEntity
  8
LC-004-006-----0
  6
STRICHLINIE
 62
           2
100
AcDbLine
 10
675.529358
 20
248.372131
 30
0.0
 11
675.529358
 21
254.372131
 31
0.0
  0
LINE
  5
D4
100
AcDbEntity
  8
LC-004-006-----0
  6
STRICHLINIE
 62
           2
100
AcDbLine
 10
675.529358
 20
249.122131
 30
0.0
 11
676.029358
 21
249.122131
 31
0.0
  0
LINE
  5
D5
100
AcDbEntity
  8
LC-004-006-----0
  6
STRICHLINIE
 62
           2
100
AcDbLine
 10
675.529358
 20
253.622131
 30
0.0
 11
676.029358
 21
253.622131
 31
0.0
  0
LINE
  5
D6
100
AcDbEntity
  8
LC-004-006-----0
  6
STRICHLINIE
 62
           2
100
AcDbLine
 10
676.029358
 20
248.872131
 30
0.0
 11
678.31665
 21
248.872131
 31
0.0
  0
LINE
  5
D7
100
AcDbEntity
  8
LC-004-006-----0
  6
STRICHLINIE
 62
           2
100
AcDbLine
 10
676.029358
 20
253.872131
 30
0.0
 11
678.31665
 21
253.872131
 31
0.0
  0
ARC
  5
D8
100
AcDbEntity
  8
LC-004-006-----0
  6
STRICHLINIE
 62
           2
100
AcDbCircle
 10
663.72937
 20
251.372131
 30
0.0
 40
14.8
100
AcDbArc
 50
350.275031
 51
9.724969
  0
ARC
  5
D9
100
AcDbEntity
  8
LC-004-006-----0
  6
STRICHLINIE
 62
           2
100
AcDbCircle
 10
677.309937
 20
254.572128
 30
0.0
 40
1.226194
100
AcDbArc
 50
325.188943999999
 51
34.811056000001
  0
ARC
  5
DA
100
AcDbEntity
  8
LC-004-006-----0
  6
STRICHLINIE
 62
           2
100
AcDbCircle
 10
677.309937
 20
248.172134
 30
0.0
 40
1.226194
100
AcDbArc
 50
325.188943999999
 51
34.811056000001
  0
LINE
  5
DB
100
AcDbEntity
  8
LC-004-006-----0
  6
STRICHLINIE
 62
           2
100
AcDbLine
 10
695.029358
 20
243.872131
 30
0.0
 11
676.029358
 21
243.872131
 31
0.0
  0
LINE
  5
DC
100
AcDbEntity
  8
LC-004-006-----0
  6
STRICHLINIE
 62
           2
100
AcDbLine
 10
695.029358
 20
258.872131
 30
0.0
 11
676.029358
 21
258.872131
 31
0.0
  0
LINE
  5
DD
100
AcDbEntity
  8
LC-006-012-----0
  6
STRICHPUNKT
 62
           2
100
AcDbLine
 10
560.989563
 20
88.099892
 30
0.0
 11
597.877197
 21
88.099892
 31
0.0
  0
LINE
  5
DE
100
AcDbEntity
  8
LC-006-012-----0
  6
STRICHPUNKT
 62
           2
100
AcDbLine
 10
786.597717
 20
263.558044
 30
0.0
 11
786.597717
 21
238.869141
 31
0.0
  0
LINE
  5
DF
100
AcDbEntity
  8
LC-006-012-----0
  6
STRICHPUNKT
 62
           2
100
AcDbLine
 10
775.438049
 20
251.372131
 30
0.0
 11
798.711487
 21
251.372131
 31
0.0
  0
CIRCLE
  5
E0
100
AcDbEntity
  8
LC-003-002-----0
  6
AUSGEZOGEN
 62
           1
100
AcDbCircle
 10
786.597717
 20
251.372131
 30
0.0
 40
7.5
  0
LINE
  5
E1
100
AcDbEntity
  8
LC-003-002-----0
  6
AUSGEZOGEN
 62
           1
100
AcDbLine
 10
783.272705
 20
249.452438
 30
0.0
 11
786.597717
 21
247.532761
 31
0.0
  0
LINE
  5
E2
100
AcDbEntity
  8
LC-003-002-----0
  6
AUSGEZOGEN
 62
           1
100
AcDbLine
 10
786.597717
 20
255.211517
 30
0.0
 11
789.922668
 21
253.291824
 31
0.0
  0
LINE
  5
E3
100
AcDbEntity
  8
LC-003-002-----0
  6
AUSGEZOGEN
 62
           1
100
AcDbLine
 10
783.272705
 20
253.291824
 30
0.0
 11
783.272705
 21
249.452438
 31
0.0
  0
LINE
  5
E4
100
AcDbEntity
  8
LC-003-002-----0
  6
AUSGEZOGEN
 62
           1
100
AcDbLine
 10
789.922668
 20
253.291824
 30
0.0
 11
789.922668
 21
249.452438
 31
0.0
  0
LINE
  5
E5
100
AcDbEntity
  8
LC-003-002-----0
  6
AUSGEZOGEN
 62
           1
100
AcDbLine
 10
786.597717
 20
255.211517
 30
0.0
 11
783.272705
 21
253.291824
 31
0.0
  0
LINE
  5
E6
100
AcDbEntity
  8
LC-003-002-----0
  6
AUSGEZOGEN
 62
           1
100
AcDbLine
 10
789.922668
 20
249.452438
 30
0.0
 11
786.597717
 21
247.532761
 31
0.0
  0
CIRCLE
  5
E7
100
AcDbEntity
  8
LC-003-002-----0
  6
AUSGEZOGEN
 62
           1
100
AcDbCircle
 10
786.597717
 20
251.372131
 30
0.0
 40
3.325
  0
LINE
  5
E8
100
AcDbEntity
  8
LC-004-006-----0
  6
STRICHLINIE
 62
           2
100
AcDbLine
 10
591.779358
 20
91.099892
 30
0.0
 11
584.529358
 21
91.099892
 31
0.0
  0
LINE
  5
E9
100
AcDbEntity
  8
LC-006-012-----0
  6
STRICHPUNKT
 62
           2
100
AcDbLine
 10
699.069092
 20
-35.900105
 30
0.0
 11
662.181458
 21
-35.900105
 31
0.0
  0
LINE
  5
EA
100
AcDbEntity
  8
LC-004-006-----0
  6
STRICHLINIE
 62
           2
100
AcDbLine
 10
668.279358
 20
-32.900105
 30
0.0
 11
675.529358
 21
-32.900105
 31
0.0
  0
LINE
  5
EB
100
AcDbEntity
  8
LC-004-006-----0
  6
STRICHLINIE
 62
           2
100
AcDbLine
 10
668.279358
 20
-38.900105
 30
0.0
 11
675.529358
 21
-38.900105
 31
0.0
  0
LINE
  5
EC
100
AcDbEntity
  8
LC-004-006-----0
  6
STRICHLINIE
 62
           2
100
AcDbLine
 10
675.529358
 20
-33.400105
 30
0.0
 11
668.029358
 21
-33.400105
 31
0.0
  0
LINE
  5
ED
100
AcDbEntity
  8
LC-004-006-----0
  6
STRICHLINIE
 62
           2
100
AcDbLine
 10
675.529358
 20
-38.400105
 30
0.0
 11
668.029358
 21
-38.400105
 31
0.0
  0
LINE
  5
EE
100
AcDbEntity
  8
LC-004-006-----0
  6
STRICHLINIE
 62
           2
100
AcDbLine
 10
678.529358
 20
-32.700108
 30
0.0
 11
678.529358
 21
-38.971489
 31
0.0
  0
LINE
  5
EF
100
AcDbEntity
  8
LC-004-006-----0
  6
STRICHLINIE
 62
           2
100
AcDbLine
 10
676.029358
 20
-28.400106
 30
0.0
 11
676.029358
 21
-43.400105
 31
0.0
  0
LINE
  5
F0
100
AcDbEntity
  8
LC-004-006-----0
  6
STRICHLINIE
 62
           2
100
AcDbLine
 10
663.72937
 20
-33.900105
 30
0.0
 11
663.72937
 21
-37.900105
 31
0.0
  0
LINE
  5
F1
100
AcDbEntity
  8
LC-004-006-----0
  6
STRICHLINIE
 62
           2
100
AcDbLine
 10
678.31665
 20
-32.000107
 30
0.0
 11
676.029358
 21
-32.000107
 31
0.0
  0
LINE
  5
F2
100
AcDbEntity
  8
LC-004-006-----0
  6
STRICHLINIE
 62
           2
100
AcDbLine
 10
678.31665
 20
-39.800106
 30
0.0
 11
676.029358
 21
-39.800106
 31
0.0
  0
LINE
  5
F3
100
AcDbEntity
  8
LC-004-006-----0
  6
STRICHLINIE
 62
           2
100
AcDbLine
 10
668.029358
 20
-33.150105
 30
0.0
 11
668.029358
 21
-38.650105
 31
0.0
  0
LINE
  5
F4
100
AcDbEntity
  8
LC-004-006-----0
  6
STRICHLINIE
 62
           2
100
AcDbLine
 10
668.029358
 20
-33.150105
 30
0.0
 11
668.279358
 21
-32.900105
 31
0.0
  0
LINE
  5
F5
100
AcDbEntity
  8
LC-004-006-----0
  6
STRICHLINIE
 62
           2
100
AcDbLine
 10
668.029358
 20
-38.650105
 30
0.0
 11
668.279358
 21
-38.900105
 31
0.0
  0
LINE
  5
F6
100
AcDbEntity
  8
LC-004-006-----0
  6
STRICHLINIE
 62
           2
100
AcDbLine
 10
668.279358
 20
-32.900105
 30
0.0
 11
668.279358
 21
-38.900105
 31
0.0
  0
LINE
  5
F7
100
AcDbEntity
  8
LC-004-006-----0
  6
STRICHLINIE
 62
           2
100
AcDbLine
 10
668.029358
 20
-33.650105
 30
0.0
 11
663.97937
 21
-33.650105
 31
0.0
  0
LINE
  5
F8
100
AcDbEntity
  8
LC-004-006-----0
  6
STRICHLINIE
 62
           2
100
AcDbLine
 10
668.029358
 20
-38.150105
 30
0.0
 11
663.97937
 21
-38.150105
 31
0.0
  0
ARC
  5
F9
100
AcDbEntity
  8
LC-004-006-----0
  6
STRICHLINIE
 62
           2
100
AcDbCircle
 10
663.97937
 20
-33.900105
 30
0.0
 40
0.25
100
AcDbArc
 50
90.000003000011
 51
180.000008999999
  0
ARC
  5
FA
100
AcDbEntity
  8
LC-004-006-----0
  6
STRICHLINIE
 62
           2
100
AcDbCircle
 10
663.97937
 20
-37.900105
 30
0.0
 40
0.25
100
AcDbArc
 50
180.000008999999
 51
269.999996999989
  0
LINE
  5
FB
100
AcDbEntity
  8
LC-004-006-----0
  6
STRICHLINIE
 62
           2
100
AcDbLine
 10
675.529358
 20
-32.900105
 30
0.0
 11
675.529358
 21
-38.900105
 31
0.0
  0
LINE
  5
FC
100
AcDbEntity
  8
LC-004-006-----0
  6
STRICHLINIE
 62
           2
100
AcDbLine
 10
675.529358
 20
-33.650105
 30
0.0
 11
676.029358
 21
-33.650105
 31
0.0
  0
LINE
  5
FD
100
AcDbEntity
  8
LC-004-006-----0
  6
STRICHLINIE
 62
           2
100
AcDbLine
 10
675.529358
 20
-38.150105
 30
0.0
 11
676.029358
 21
-38.150105
 31
0.0
  0
LINE
  5
FE
100
AcDbEntity
  8
LC-004-006-----0
  6
STRICHLINIE
 62
           2
100
AcDbLine
 10
676.029358
 20
-33.400105
 30
0.0
 11
678.31665
 21
-33.400105
 31
0.0
  0
LINE
  5
FF
100
AcDbEntity
  8
LC-004-006-----0
  6
STRICHLINIE
 62
           2
100
AcDbLine
 10
676.029358
 20
-38.400105
 30
0.0
 11
678.31665
 21
-38.400105
 31
0.0
  0
ARC
  5
100
100
AcDbEntity
  8
LC-004-006-----0
  6
STRICHLINIE
 62
           2
100
AcDbCircle
 10
663.72937
 20
-35.900105
 30
0.0
 40
14.8
100
AcDbArc
 50
350.275031
 51
9.724969
  0
ARC
  5
101
100
AcDbEntity
  8
LC-004-006-----0
  6
STRICHLINIE
 62
           2
100
AcDbCircle
 10
677.309937
 20
-39.100105
 30
0.0
 40
1.226194
100
AcDbArc
 50
325.188943999999
 51
34.811056000001
  0
ARC
  5
102
100
AcDbEntity
  8
LC-004-006-----0
  6
STRICHLINIE
 62
           2
100
AcDbCircle
 10
677.309937
 20
-32.700108
 30
0.0
 40
1.226194
100
AcDbArc
 50
325.188943999999
 51
34.811056000001
  0
LINE
  5
103
100
AcDbEntity
  8
LC-004-006-----0
  6
STRICHLINIE
 62
           2
100
AcDbLine
 10
695.029358
 20
-28.400106
 30
0.0
 11
676.029358
 21
-28.400106
 31
0.0
  0
LINE
  5
104
100
AcDbEntity
  8
LC-004-006-----0
  6
STRICHLINIE
 62
           2
100
AcDbLine
 10
695.029358
 20
-43.400105
 30
0.0
 11
676.029358
 21
-43.400105
 31
0.0
  0
LINE
  5
105
100
AcDbEntity
  8
LC-004-006-----0
  6
STRICHLINIE
 62
           2
100
AcDbLine
 10
591.779358
 20
248.372131
 30
0.0
 11
584.529358
 21
248.372131
 31
0.0
  0
LINE
  5
106
100
AcDbEntity
  8
LC-004-006-----0
  6
STRICHLINIE
 62
           2
100
AcDbLine
 10
591.779358
 20
254.372131
 30
0.0
 11
584.529358
 21
254.372131
 31
0.0
  0
LINE
  5
107
100
AcDbEntity
  8
LC-004-006-----0
  6
STRICHLINIE
 62
           2
100
AcDbLine
 10
584.529358
 20
248.872131
 30
0.0
 11
592.029358
 21
248.872131
 31
0.0
  0
LINE
  5
108
100
AcDbEntity
  8
LC-004-006-----0
  6
STRICHLINIE
 62
           2
100
AcDbLine
 10
584.529358
 20
253.872131
 30
0.0
 11
592.029358
 21
253.872131
 31
0.0
  0
LINE
  5
109
100
AcDbEntity
  8
LC-004-006-----0
  6
STRICHLINIE
 62
           2
100
AcDbLine
 10
581.529358
 20
248.172134
 30
0.0
 11
581.529358
 21
254.443512
 31
0.0
  0
LINE
  5
10A
100
AcDbEntity
  8
LC-004-006-----0
  6
STRICHLINIE
 62
           2
100
AcDbLine
 10
584.029358
 20
243.872131
 30
0.0
 11
584.029358
 21
258.872131
 31
0.0
  0
LINE
  5
10B
100
AcDbEntity
  8
LC-004-006-----0
  6
STRICHLINIE
 62
           2
100
AcDbLine
 10
596.329346
 20
249.372131
 30
0.0
 11
596.329346
 21
253.372131
 31
0.0
  0
LINE
  5
10C
100
AcDbEntity
  8
LC-004-006-----0
  6
STRICHLINIE
 62
           2
100
AcDbLine
 10
581.742004
 20
247.472137
 30
0.0
 11
584.029358
 21
247.472137
 31
0.0
  0
LINE
  5
10D
100
AcDbEntity
  8
LC-004-006-----0
  6
STRICHLINIE
 62
           2
100
AcDbLine
 10
581.742004
 20
255.272141
 30
0.0
 11
584.029358
 21
255.272141
 31
0.0
  0
LINE
  5
10E
100
AcDbEntity
  8
LC-004-006-----0
  6
STRICHLINIE
 62
           2
100
AcDbLine
 10
592.029358
 20
248.622131
 30
0.0
 11
592.029358
 21
254.122131
 31
0.0
  0
LINE
  5
10F
100
AcDbEntity
  8
LC-004-006-----0
  6
STRICHLINIE
 62
           2
100
AcDbLine
 10
592.029358
 20
248.622131
 30
0.0
 11
591.779358
 21
248.372131
 31
0.0
  0
LINE
  5
110
100
AcDbEntity
  8
LC-004-006-----0
  6
STRICHLINIE
 62
           2
100
AcDbLine
 10
592.029358
 20
254.122131
 30
0.0
 11
591.779358
 21
254.372131
 31
0.0
  0
LINE
  5
111
100
AcDbEntity
  8
LC-004-006-----0
  6
STRICHLINIE
 62
           2
100
AcDbLine
 10
591.779358
 20
248.372131
 30
0.0
 11
591.779358
 21
254.372131
 31
0.0
  0
LINE
  5
112
100
AcDbEntity
  8
LC-004-006-----0
  6
STRICHLINIE
 62
           2
100
AcDbLine
 10
592.029358
 20
249.122131
 30
0.0
 11
596.079346
 21
249.122131
 31
0.0
  0
LINE
  5
113
100
AcDbEntity
  8
LC-004-006-----0
  6
STRICHLINIE
 62
           2
100
AcDbLine
 10
592.029358
 20
253.622131
 30
0.0
 11
596.079346
 21
253.622131
 31
0.0
  0
ARC
  5
114
100
AcDbEntity
  8
LC-004-006-----0
  6
STRICHLINIE
 62
           2
100
AcDbCircle
 10
596.079346
 20
249.372131
 30
0.0
 40
0.25
100
AcDbArc
 50
269.999996999989
 51
0.0
  0
ARC
  5
115
100
AcDbEntity
  8
LC-004-006-----0
  6
STRICHLINIE
 62
           2
100
AcDbCircle
 10
596.079346
 20
253.372131
 30
0.0
 40
0.25
100
AcDbArc
 50
0.0
 51
90.000003000011
  0
LINE
  5
116
100
AcDbEntity
  8
LC-004-006-----0
  6
STRICHLINIE
 62
           2
100
AcDbLine
 10
584.529358
 20
248.372131
 30
0.0
 11
584.529358
 21
254.372131
 31
0.0
  0
LINE
  5
117
100
AcDbEntity
  8
LC-004-006-----0
  6
STRICHLINIE
 62
           2
100
AcDbLine
 10
584.529358
 20
249.122131
 30
0.0
 11
584.029358
 21
249.122131
 31
0.0
  0
LINE
  5
118
100
AcDbEntity
  8
LC-004-006-----0
  6
STRICHLINIE
 62
           2
100
AcDbLine
 10
584.529358
 20
253.622131
 30
0.0
 11
584.029358
 21
253.622131
 31
0.0
  0
LINE
  5
119
100
AcDbEntity
  8
LC-004-006-----0
  6
STRICHLINIE
 62
           2
100
AcDbLine
 10
584.029358
 20
248.872131
 30
0.0
 11
581.742004
 21
248.872131
 31
0.0
  0
LINE
  5
11A
100
AcDbEntity
  8
LC-004-006-----0
  6
STRICHLINIE
 62
           2
100
AcDbLine
 10
584.029358
 20
253.872131
 30
0.0
 11
581.742004
 21
253.872131
 31
0.0
  0
ARC
  5
11B
100
AcDbEntity
  8
LC-004-006-----0
  6
STRICHLINIE
 62
           2
100
AcDbCircle
 10
596.329346
 20
251.372131
 30
0.0
 40
14.8
100
AcDbArc
 50
170.275031
 51
189.724969
  0
ARC
  5
11C
100
AcDbEntity
  8
LC-004-006-----0
  6
STRICHLINIE
 62
           2
100
AcDbCircle
 10
582.748779
 20
254.572128
 30
0.0
 40
1.226194
100
AcDbArc
 50
145.188949
 51
214.811050999999
  0
ARC
  5
11D
100
AcDbEntity
  8
LC-004-006-----0
  6
STRICHLINIE
 62
           2
100
AcDbCircle
 10
582.748779
 20
248.172134
 30
0.0
 40
1.226194
100
AcDbArc
 50
145.188949
 51
214.811050999999
  0
LINE
  5
11E
100
AcDbEntity
  8
LC-004-006-----0
  6
STRICHLINIE
 62
           2
100
AcDbLine
 10
565.029358
 20
243.872131
 30
0.0
 11
584.029358
 21
243.872131
 31
0.0
  0
LINE
  5
11F
100
AcDbEntity
  8
LC-004-006-----0
  6
STRICHLINIE
 62
           2
100
AcDbLine
 10
565.029358
 20
258.872131
 30
0.0
 11
584.029358
 21
258.872131
 31
0.0
  0
LINE
  5
120
100
AcDbEntity
  8
LC-006-012-----0
  6
STRICHPUNKT
 62
           2
100
AcDbLine
 10
910.597717
 20
263.558044
 30
0.0
 11
910.597717
 21
238.869141
 31
0.0
  0
LINE
  5
121
100
AcDbEntity
  8
LC-006-012-----0
  6
STRICHPUNKT
 62
           2
100
AcDbLine
 10
560.989563
 20
251.372131
 30
0.0
 11
597.877197
 21
251.372131
 31
0.0
  0
LINE
  5
122
100
AcDbEntity
  8
LC-006-012-----0
  6
STRICHPUNKT
 62
           2
100
AcDbLine
 10
899.438049
 20
251.372131
 30
0.0
 11
922.711487
 21
251.372131
 31
0.0
  0
CIRCLE
  5
123
100
AcDbEntity
  8
LC-004-006-----0
  6
STRICHLINIE
 62
           2
100
AcDbCircle
 10
910.597717
 20
251.372131
 30
0.0
 40
7.5
  0
LINE
  5
124
100
AcDbEntity
  8
LC-004-006-----0
  6
STRICHLINIE
 62
           2
100
AcDbLine
 10
907.272705
 20
249.452438
 30
0.0
 11
910.597717
 21
247.532761
 31
0.0
  0
LINE
  5
125
100
AcDbEntity
  8
LC-004-006-----0
  6
STRICHLINIE
 62
           2
100
AcDbLine
 10
910.597717
 20
255.211517
 30
0.0
 11
913.922668
 21
253.291824
 31
0.0
  0
LINE
  5
126
100
AcDbEntity
  8
LC-004-006-----0
  6
STRICHLINIE
 62
           2
100
AcDbLine
 10
907.272705
 20
253.291824
 30
0.0
 11
907.272705
 21
249.452438
 31
0.0
  0
LINE
  5
127
100
AcDbEntity
  8
LC-004-006-----0
  6
STRICHLINIE
 62
           2
100
AcDbLine
 10
913.922668
 20
253.291824
 30
0.0
 11
913.922668
 21
249.452438
 31
0.0
  0
LINE
  5
128
100
AcDbEntity
  8
LC-004-006-----0
  6
STRICHLINIE
 62
           2
100
AcDbLine
 10
910.597717
 20
255.211517
 30
0.0
 11
907.272705
 21
253.291824
 31
0.0
  0
LINE
  5
129
100
AcDbEntity
  8
LC-004-006-----0
  6
STRICHLINIE
 62
           2
100
AcDbLine
 10
913.922668
 20
249.452438
 30
0.0
 11
910.597717
 21
247.532761
 31
0.0
  0
CIRCLE
  5
12A
100
AcDbEntity
  8
LC-004-006-----0
  6
STRICHLINIE
 62
           2
100
AcDbCircle
 10
910.597717
 20
251.372131
 30
0.0
 40
3.325
  0
LINE
  5
12B
100
AcDbEntity
  8
LC-004-006-----0
  6
STRICHLINIE
 62
           2
100
AcDbLine
 10
591.779358
 20
85.099892
 30
0.0
 11
584.529358
 21
85.099892
 31
0.0
  0
LINE
  5
12C
100
AcDbEntity
  8
LC-004-006-----0
  6
STRICHLINIE
 62
           2
100
AcDbLine
 10
584.529358
 20
90.599892
 30
0.0
 11
592.029358
 21
90.599892
 31
0.0
  0
LINE
  5
12D
100
AcDbEntity
  8
LC-004-006-----0
  6
STRICHLINIE
 62
           2
100
AcDbLine
 10
584.529358
 20
85.599892
 30
0.0
 11
592.029358
 21
85.599892
 31
0.0
  0
LINE
  5
12E
100
AcDbEntity
  8
LC-004-006-----0
  6
STRICHLINIE
 62
           2
100
AcDbLine
 10
581.529358
 20
91.299896
 30
0.0
 11
581.529358
 21
85.028511
 31
0.0
  0
LINE
  5
12F
100
AcDbEntity
  8
LC-004-006-----0
  6
STRICHLINIE
 62
           2
100
AcDbLine
 10
584.029358
 20
95.599892
 30
0.0
 11
584.029358
 21
80.599892
 31
0.0
  0
LINE
  5
130
100
AcDbEntity
  8
LC-004-006-----0
  6
STRICHLINIE
 62
           2
100
AcDbLine
 10
596.329346
 20
90.099892
 30
0.0
 11
596.329346
 21
86.099892
 31
0.0
  0
LINE
  5
131
100
AcDbEntity
  8
LC-004-006-----0
  6
STRICHLINIE
 62
           2
100
AcDbLine
 10
581.742004
 20
91.999893
 30
0.0
 11
584.029358
 21
91.999893
 31
0.0
  0
LINE
  5
132
100
AcDbEntity
  8
LC-004-006-----0
  6
STRICHLINIE
 62
           2
100
AcDbLine
 10
581.742004
 20
84.199898
 30
0.0
 11
584.029358
 21
84.199898
 31
0.0
  0
LINE
  5
133
100
AcDbEntity
  8
LC-004-006-----0
  6
STRICHLINIE
 62
           2
100
AcDbLine
 10
592.029358
 20
90.849892
 30
0.0
 11
592.029358
 21
85.349892
 31
0.0
  0
LINE
  5
134
100
AcDbEntity
  8
LC-004-006-----0
  6
STRICHLINIE
 62
           2
100
AcDbLine
 10
592.029358
 20
90.849892
 30
0.0
 11
591.779358
 21
91.099892
 31
0.0
  0
LINE
  5
135
100
AcDbEntity
  8
LC-004-006-----0
  6
STRICHLINIE
 62
           2
100
AcDbLine
 10
592.029358
 20
85.349892
 30
0.0
 11
591.779358
 21
85.099892
 31
0.0
  0
LINE
  5
136
100
AcDbEntity
  8
LC-004-006-----0
  6
STRICHLINIE
 62
           2
100
AcDbLine
 10
591.779358
 20
91.099892
 30
0.0
 11
591.779358
 21
85.099892
 31
0.0
  0
LINE
  5
137
100
AcDbEntity
  8
LC-004-006-----0
  6
STRICHLINIE
 62
           2
100
AcDbLine
 10
592.029358
 20
90.349892
 30
0.0
 11
596.079346
 21
90.349892
 31
0.0
  0
LINE
  5
138
100
AcDbEntity
  8
LC-004-006-----0
  6
STRICHLINIE
 62
           2
100
AcDbLine
 10
592.029358
 20
85.849892
 30
0.0
 11
596.079346
 21
85.849892
 31
0.0
  0
ARC
  5
139
100
AcDbEntity
  8
LC-004-006-----0
  6
STRICHLINIE
 62
           2
100
AcDbCircle
 10
596.079346
 20
90.099892
 30
0.0
 40
0.25
100
AcDbArc
 50
0.0
 51
90.000003000011
  0
ARC
  5
13A
100
AcDbEntity
  8
LC-004-006-----0
  6
STRICHLINIE
 62
           2
100
AcDbCircle
 10
596.079346
 20
86.099892
 30
0.0
 40
0.25
100
AcDbArc
 50
269.999996999989
 51
0.0
  0
LINE
  5
13B
100
AcDbEntity
  8
LC-004-006-----0
  6
STRICHLINIE
 62
           2
100
AcDbLine
 10
584.529358
 20
91.099892
 30
0.0
 11
584.529358
 21
85.099892
 31
0.0
  0
LINE
  5
13C
100
AcDbEntity
  8
LC-004-006-----0
  6
STRICHLINIE
 62
           2
100
AcDbLine
 10
584.529358
 20
90.349892
 30
0.0
 11
584.029358
 21
90.349892
 31
0.0
  0
LINE
  5
13D
100
AcDbEntity
  8
LC-004-006-----0
  6
STRICHLINIE
 62
           2
100
AcDbLine
 10
584.529358
 20
85.849892
 30
0.0
 11
584.029358
 21
85.849892
 31
0.0
  0
LINE
  5
13E
100
AcDbEntity
  8
LC-004-006-----0
  6
STRICHLINIE
 62
           2
100
AcDbLine
 10
584.029358
 20
90.599892
 30
0.0
 11
581.742004
 21
90.599892
 31
0.0
  0
LINE
  5
13F
100
AcDbEntity
  8
LC-004-006-----0
  6
STRICHLINIE
 62
           2
100
AcDbLine
 10
584.029358
 20
85.599892
 30
0.0
 11
581.742004
 21
85.599892
 31
0.0
  0
ARC
  5
140
100
AcDbEntity
  8
LC-004-006-----0
  6
STRICHLINIE
 62
           2
100
AcDbCircle
 10
596.329346
 20
88.099892
 30
0.0
 40
14.8
100
AcDbArc
 50
170.275031
 51
189.724969
  0
ARC
  5
141
100
AcDbEntity
  8
LC-004-006-----0
  6
STRICHLINIE
 62
           2
100
AcDbCircle
 10
582.748779
 20
84.899895
 30
0.0
 40
1.226194
100
AcDbArc
 50
145.188949
 51
214.811050999999
  0
ARC
  5
142
100
AcDbEntity
  8
LC-004-006-----0
  6
STRICHLINIE
 62
           2
100
AcDbCircle
 10
582.748779
 20
91.299896
 30
0.0
 40
1.226194
100
AcDbArc
 50
145.188949
 51
214.811050999999
  0
LINE
  5
143
100
AcDbEntity
  8
LC-004-006-----0
  6
STRICHLINIE
 62
           2
100
AcDbLine
 10
565.029358
 20
95.599892
 30
0.0
 11
584.029358
 21
95.599892
 31
0.0
  0
LINE
  5
144
100
AcDbEntity
  8
LC-004-006-----0
  6
STRICHLINIE
 62
           2
100
AcDbLine
 10
565.029358
 20
80.599892
 30
0.0
 11
584.029358
 21
80.599892
 31
0.0
  0
LINE
  5
145
100
AcDbEntity
  8
LC-004-006-----0
  6
STRICHLINIE
 62
           2
100
AcDbLine
 10
860.597717
 20
276.529816
 30
0.0
 11
960.597717
 21
276.529816
 31
0.0
  0
ENDSEC
  0
SECTION
  2
OBJECTS
  0
DICTIONARY
  5
19
100
AcDbDictionary
  3
ACAD_GROUP
350
1A
  3
ACAD_MLINESTYLE
350
1B
  0
DICTIONARY
  5
1A
102
{ACAD_REACTORS
330
19
102
}
100
AcDbDictionary
  0
DICTIONARY
  5
1B
102
{ACAD_REACTORS
330
19
102
}
100
AcDbDictionary
  3
STANDARD
350
1C
  0
MLINESTYLE
  5
1C
102
{ACAD_REACTORS
330
1B
102
}
100
AcDbMlineStyle
  2
STANDARD
 70
           0
  3

 62
           0
 51
90.0
 52
90.0
 71
           2
 49
0.5
 62
         256
  6
BYLAYER
 49
-0.5
 62
         256
  6
BYLAYER
  0
ENDSEC
  0
EOF
