  0
SECTION
  2
HEADER
  9
$LIMMIN
 10
760.168274
 20
355.382385
  9
$LIMMAX
 10
1487.315796
 20
786.629395
  9
$EXTMIN
 10
760.168274
 20
355.382385
  9
$EXTMAX
 10
1487.315796
 20
786.629395
  0
ENDSEC
  0
SECTION
  2
TABLES
  0
TABLE
  2
LTYPE
 70
     3
  0
LTYPE
  2
CONTINUOUS
 70
    64
  3
Ausgezogene Linie
 72
    65
 73
     0
 40
0.0
  0
LTYPE
  2
DASHED
 70
    64
  3
__ __ __ __ __ __ __ __ __ __ __ __ __ __ __
 72
    65
 73
     2
 40
0.75
 49
0.5
 49
-0.25
  0
LTYPE
  2
DASHDOT
 70
    64
  3
__ . __ . __ . __ . __ . __ . __ . __ . __ . __
 72
    65
 73
     4
 40
1.0
 49
0.5
 49
-0.25
 49
0.0
 49
-0.25
  0
ENDTAB
  0
TABLE
  2
LAYER
 70
     5
  0
LAYER
  2
LC-INFO-1-1-MM-A0-0
 70
    64
 62
     7
  6
CONTINUOUS
  0
LAYER
  2
LC-003-002-----0
 70
    64
 62
     7
  6
CONTINUOUS
  0
LAYER
  2
LC-005-002-RND-0
 70
    64
 62
     7
  6
CONTINUOUS
  0
LAYER
  2
LC-004-006-----0
 70
    64
 62
     7
  6
CONTINUOUS
  0
LAYER
  2
LC-006-012-----0
 70
    64
 62
     7
  6
CONTINUOUS
  0
ENDTAB
  0
TABLE
  2
STYLE
 70
     1
  0
STYLE
  2
TXT8
 70
    64
 40
0.0
 41
1.0
 50
0.0
 71
     0
 42
3.500000
  3
TXT8
  4

  0
ENDTAB
  0
ENDSEC
  0
SECTION
  2
BLOCKS
  0
ENDSEC
  0
SECTION
  2
ENTITIES
  0
LINE
  8
LC-004-006-----0
 62
     2
  6
DASHED
 10
789.581604
 20
683.250061
 11
789.581604
 21
725.250061
  0
LINE
  8
LC-004-006-----0
 62
     2
  6
DASHED
 10
788.581604
 20
683.250061
 11
788.581604
 21
725.250061
  0
LINE
  8
LC-004-006-----0
 62
     2
  6
DASHED
 10
774.581604
 20
683.250061
 11
774.581604
 21
725.250061
  0
LINE
  8
LC-004-006-----0
 62
     2
  6
DASHED
 10
773.581604
 20
683.250061
 11
773.581604
 21
725.250061
  0
LINE
  8
LC-003-002-----0
 62
     1
  6
CONTINUOUS
 10
766.581604
 20
771.250061
 11
796.581604
 21
771.250061
  0
LINE
  8
LC-003-002-----0
 62
     1
  6
CONTINUOUS
 10
766.581604
 20
771.250061
 11
766.581604
 21
683.250061
  0
LINE
  8
LC-003-002-----0
 62
     1
  6
CONTINUOUS
 10
796.581604
 20
771.250061
 11
796.581604
 21
683.250061
  0
LINE
  8
LC-003-002-----0
 62
     1
  6
CONTINUOUS
 10
766.581604
 20
683.250061
 11
796.581604
 21
683.250061
  0
LINE
  8
LC-003-002-----0
 62
     1
  6
CONTINUOUS
 10
816.581604
 20
775.250061
 11
816.581604
 21
679.250061
  0
LINE
  8
LC-003-002-----0
 62
     1
  6
CONTINUOUS
 10
816.581604
 20
679.250061
 11
1096.581543
 21
679.250061
  0
LINE
  8
LC-003-002-----0
 62
     1
  6
CONTINUOUS
 10
816.581604
 20
775.250061
 11
1096.581543
 21
775.250061
  0
LINE
  8
LC-003-002-----0
 62
     1
  6
CONTINUOUS
 10
1096.581543
 20
775.250061
 11
1096.581543
 21
679.250061
  0
LINE
  8
LC-005-002-RND-0
 62
     2
  6
DASHDOT
 10
781.581604
 20
673.863159
 11
781.581604
 21
778.986145
  0
LINE
  8
LC-004-006-----0
 62
     2
  6
DASHED
 10
1139.581543
 20
683.250061
 11
1139.581543
 21
725.250061
  0
LINE
  8
LC-004-006-----0
 62
     2
  6
DASHED
 10
1138.581543
 20
683.250061
 11
1138.581543
 21
725.250061
  0
LINE
  8
LC-004-006-----0
 62
     2
  6
DASHED
 10
794.581604
 20
753.750061
 11
794.581604
 21
771.250061
  0
LINE
  8
LC-004-006-----0
 62
     2
  6
DASHED
 10
768.581604
 20
753.750061
 11
768.581604
 21
771.250061
  0
LINE
  8
LC-004-006-----0
 62
     2
  6
DASHED
 10
768.581604
 20
753.750061
 11
794.581604
 21
753.750061
  0
LINE
  8
LC-005-002-RND-0
 62
     2
  6
DASHDOT
 10
760.168274
 20
727.250061
 11
1152.116699
 21
727.250061
  0
LINE
  8
LC-004-006-----0
 62
     2
  6
DASHED
 10
766.581604
 20
752.250061
 11
796.581604
 21
752.250061
  0
LINE
  8
LC-004-006-----0
 62
     2
  6
DASHED
 10
766.581604
 20
702.250061
 11
796.581604
 21
702.250061
  0
LINE
  8
LC-003-002-----0
 62
     1
  6
CONTINUOUS
 10
766.581604
 20
729.250061
 11
796.581604
 21
729.250061
  0
LINE
  8
LC-003-002-----0
 62
     1
  6
CONTINUOUS
 10
766.581604
 20
725.250061
 11
796.581604
 21
725.250061
  0
LINE
  8
LC-004-006-----0
 62
     2
  6
DASHED
 10
772.831604
 20
729.250061
 11
772.831604
 21
753.750061
  0
LINE
  8
LC-004-006-----0
 62
     2
  6
DASHED
 10
790.331604
 20
729.250061
 11
790.331604
 21
753.750061
  0
LINE
  8
LC-003-002-----0
 62
     1
  6
CONTINUOUS
 10
1146.581543
 20
771.250061
 11
1116.581543
 21
771.250061
  0
LINE
  8
LC-003-002-----0
 62
     1
  6
CONTINUOUS
 10
1146.581543
 20
771.250061
 11
1146.581543
 21
683.250061
  0
LINE
  8
LC-003-002-----0
 62
     1
  6
CONTINUOUS
 10
1116.581543
 20
771.250061
 11
1116.581543
 21
683.250061
  0
LINE
  8
LC-003-002-----0
 62
     1
  6
CONTINUOUS
 10
1146.581543
 20
683.250061
 11
1116.581543
 21
683.250061
  0
LINE
  8
LC-004-006-----0
 62
     2
  6
DASHED
 10
1124.581543
 20
683.250061
 11
1124.581543
 21
725.250061
  0
LINE
  8
LC-004-006-----0
 62
     2
  6
DASHED
 10
1123.581543
 20
683.250061
 11
1123.581543
 21
725.250061
  0
LINE
  8
LC-004-006-----0
 62
     2
  6
DASHED
 10
1118.581543
 20
753.750061
 11
1118.581543
 21
771.250061
  0
LINE
  8
LC-004-006-----0
 62
     2
  6
DASHED
 10
1144.581543
 20
753.750061
 11
1144.581543
 21
771.250061
  0
LINE
  8
LC-004-006-----0
 62
     2
  6
DASHED
 10
1144.581543
 20
753.750061
 11
1118.581543
 21
753.750061
  0
LINE
  8
LC-004-006-----0
 62
     2
  6
DASHED
 10
1146.581543
 20
752.250061
 11
1116.581543
 21
752.250061
  0
LINE
  8
LC-004-006-----0
 62
     2
  6
DASHED
 10
1146.581543
 20
702.250061
 11
1116.581543
 21
702.250061
  0
LINE
  8
LC-003-002-----0
 62
     1
  6
CONTINUOUS
 10
1146.581543
 20
729.250061
 11
1116.581543
 21
729.250061
  0
LINE
  8
LC-003-002-----0
 62
     1
  6
CONTINUOUS
 10
1146.581543
 20
725.250061
 11
1116.581543
 21
725.250061
  0
LINE
  8
LC-004-006-----0
 62
     2
  6
DASHED
 10
1140.331543
 20
729.250061
 11
1140.331543
 21
753.750061
  0
LINE
  8
LC-004-006-----0
 62
     2
  6
DASHED
 10
1122.831543
 20
729.250061
 11
1122.831543
 21
753.750061
  0
LINE
  8
LC-005-002-RND-0
 62
     2
  6
DASHDOT
 10
1131.581543
 20
673.863159
 11
1131.581543
 21
778.986145
  0
LINE
  8
LC-003-002-----0
 62
     1
  6
CONTINUOUS
 10
796.581604
 20
752.250061
 11
816.581604
 21
752.250061
  0
LINE
  8
LC-003-002-----0
 62
     1
  6
CONTINUOUS
 10
796.581604
 20
702.250061
 11
816.581604
 21
702.250061
  0
LINE
  8
LC-004-006-----0
 62
     2
  6
DASHED
 10
816.581604
 20
752.250061
 11
1096.581543
 21
752.250061
  0
LINE
  8
LC-003-002-----0
 62
     1
  6
CONTINUOUS
 10
1096.581543
 20
752.250061
 11
1116.581543
 21
752.250061
  0
LINE
  8
LC-004-006-----0
 62
     2
  6
DASHED
 10
816.581604
 20
702.250061
 11
1096.581543
 21
702.250061
  0
LINE
  8
LC-003-002-----0
 62
     1
  6
CONTINUOUS
 10
1096.581543
 20
702.250061
 11
1116.581543
 21
702.250061
  0
LINE
  8
LC-004-006-----0
 62
     2
  6
DASHED
 10
816.581604
 20
764.750061
 11
916.581604
 21
764.750061
  0
LINE
  8
LC-004-006-----0
 62
     2
  6
DASHED
 10
816.581604
 20
689.750061
 11
916.581604
 21
689.750061
  0
LINE
  8
LC-004-006-----0
 62
     2
  6
DASHED
 10
916.581604
 20
764.750061
 11
916.581604
 21
689.750061
  0
LINE
  8
LC-004-006-----0
 62
     2
  6
DASHED
 10
996.581604
 20
764.750061
 11
996.581604
 21
689.750061
  0
LINE
  8
LC-004-006-----0
 62
     2
  6
DASHED
 10
916.581604
 20
689.750061
 11
996.581604
 21
689.750061
  0
LINE
  8
LC-004-006-----0
 62
     2
  6
DASHED
 10
996.581604
 20
689.750061
 11
1096.581543
 21
689.750061
  0
LINE
  8
LC-004-006-----0
 62
     2
  6
DASHED
 10
916.581604
 20
764.750061
 11
996.581604
 21
764.750061
  0
LINE
  8
LC-004-006-----0
 62
     2
  6
DASHED
 10
996.581604
 20
764.750061
 11
1096.581543
 21
764.750061
  0
LINE
  8
LC-005-002-RND-0
 62
     2
  6
DASHDOT
 10
1081.581543
 20
672.162170
 11
1081.581543
 21
783.184082
  0
LINE
  8
LC-004-006-----0
 62
     2
  6
DASHED
 10
1089.581543
 20
741.250061
 11
1089.581543
 21
775.250061
  0
LINE
  8
LC-004-006-----0
 62
     2
  6
DASHED
 10
1073.581543
 20
741.250061
 11
1073.581543
 21
775.250061
  0
LINE
  8
LC-004-006-----0
 62
     2
  6
DASHED
 10
1088.331543
 20
692.250061
 11
1088.331543
 21
775.250061
  0
LINE
  8
LC-004-006-----0
 62
     2
  6
DASHED
 10
1074.831543
 20
692.250061
 11
1074.831543
 21
775.250061
  0
LINE
  8
LC-004-006-----0
 62
     2
  6
DASHED
 10
1073.581543
 20
741.250061
 11
1089.581543
 21
741.250061
  0
LINE
  8
LC-004-006-----0
 62
     2
  6
DASHED
 10
1071.581543
 20
692.250061
 11
1091.581543
 21
692.250061
  0
LINE
  8
LC-005-002-RND-0
 62
     2
  6
DASHDOT
 10
831.581604
 20
672.162170
 11
831.581604
 21
783.184082
  0
LINE
  8
LC-004-006-----0
 62
     2
  6
DASHED
 10
1091.581543
 20
679.250061
 11
1091.581543
 21
692.250061
  0
LINE
  8
LC-004-006-----0
 62
     2
  6
DASHED
 10
1071.581543
 20
679.250061
 11
1071.581543
 21
692.250061
  0
LINE
  8
LC-004-006-----0
 62
     2
  6
DASHED
 10
823.581604
 20
741.250061
 11
823.581604
 21
775.250061
  0
LINE
  8
LC-004-006-----0
 62
     2
  6
DASHED
 10
839.581604
 20
741.250061
 11
839.581604
 21
775.250061
  0
LINE
  8
LC-004-006-----0
 62
     2
  6
DASHED
 10
824.831604
 20
692.250061
 11
824.831604
 21
775.250061
  0
LINE
  8
LC-004-006-----0
 62
     2
  6
DASHED
 10
838.331604
 20
692.250061
 11
838.331604
 21
775.250061
  0
LINE
  8
LC-004-006-----0
 62
     2
  6
DASHED
 10
839.581604
 20
741.250061
 11
823.581604
 21
741.250061
  0
LINE
  8
LC-004-006-----0
 62
     2
  6
DASHED
 10
841.581604
 20
692.250061
 11
821.581604
 21
692.250061
  0
LINE
  8
LC-004-006-----0
 62
     2
  6
DASHED
 10
821.581604
 20
679.250061
 11
821.581604
 21
692.250061
  0
LINE
  8
LC-004-006-----0
 62
     2
  6
DASHED
 10
841.581604
 20
679.250061
 11
841.581604
 21
692.250061
  0
LINE
  8
LC-003-002-----0
 62
     1
  6
CONTINUOUS
 10
766.581604
 20
635.382385
 11
766.581604
 21
355.382385
  0
LINE
  8
LC-003-002-----0
 62
     1
  6
CONTINUOUS
 10
766.581604
 20
355.382385
 11
796.581604
 21
355.382385
  0
LINE
  8
LC-003-002-----0
 62
     1
  6
CONTINUOUS
 10
796.581604
 20
635.382385
 11
796.581604
 21
355.382385
  0
LINE
  8
LC-003-002-----0
 62
     1
  6
CONTINUOUS
 10
816.581604
 20
635.382385
 11
816.581604
 21
355.382385
  0
LINE
  8
LC-003-002-----0
 62
     1
  6
CONTINUOUS
 10
1096.581543
 20
635.382385
 11
1096.581543
 21
355.382385
  0
LINE
  8
LC-003-002-----0
 62
     1
  6
CONTINUOUS
 10
766.581604
 20
635.382385
 11
796.581604
 21
635.382385
  0
LINE
  8
LC-003-002-----0
 62
     1
  6
CONTINUOUS
 10
816.581604
 20
355.382385
 11
1096.581543
 21
355.382385
  0
LINE
  8
LC-003-002-----0
 62
     1
  6
CONTINUOUS
 10
816.581604
 20
635.382385
 11
1096.581543
 21
635.382385
  0
LINE
  8
LC-005-002-RND-0
 62
     2
  6
DASHDOT
 10
781.581604
 20
633.484436
 11
781.581604
 21
598.453491
  0
LINE
  8
LC-005-002-RND-0
 62
     2
  6
DASHDOT
 10
799.843262
 20
615.382385
 11
763.615356
 21
615.382385
  0
CIRCLE
  8
LC-003-002-----0
 62
     1
  6
CONTINUOUS
 10
781.581604
 20
615.382385
 40
7.000000
  0
CIRCLE
  8
LC-003-002-----0
 62
     1
  6
CONTINUOUS
 10
781.581604
 20
615.382385
 40
13.000000
  0
LINE
  8
LC-005-002-RND-0
 62
     2
  6
DASHDOT
 10
781.581604
 20
357.280334
 11
781.581604
 21
392.311279
  0
LINE
  8
LC-005-002-RND-0
 62
     2
  6
DASHDOT
 10
799.843262
 20
375.382385
 11
763.615356
 21
375.382385
  0
CIRCLE
  8
LC-003-002-----0
 62
     1
  6
CONTINUOUS
 10
781.581604
 20
375.382385
 40
7.000000
  0
CIRCLE
  8
LC-003-002-----0
 62
     1
  6
CONTINUOUS
 10
781.581604
 20
375.382385
 40
13.000000
  0
LINE
  8
LC-003-002-----0
 62
     1
  6
CONTINUOUS
 10
1146.581543
 20
635.382385
 11
1146.581543
 21
355.382385
  0
LINE
  8
LC-003-002-----0
 62
     1
  6
CONTINUOUS
 10
1146.581543
 20
355.382385
 11
1116.581543
 21
355.382385
  0
LINE
  8
LC-003-002-----0
 62
     1
  6
CONTINUOUS
 10
1116.581543
 20
635.382385
 11
1116.581543
 21
355.382385
  0
LINE
  8
LC-003-002-----0
 62
     1
  6
CONTINUOUS
 10
1146.581543
 20
635.382385
 11
1116.581543
 21
635.382385
  0
LINE
  8
LC-005-002-RND-0
 62
     2
  6
DASHDOT
 10
1131.581543
 20
633.484436
 11
1131.581543
 21
598.453491
  0
LINE
  8
LC-005-002-RND-0
 62
     2
  6
DASHDOT
 10
1113.319946
 20
615.382385
 11
1149.547852
 21
615.382385
  0
ARC
  8
LC-006-012-----0
 62
     2
  6
CONTINUOUS
 10
781.581604
 20
615.382385
 40
8.000000
 50
79.705951
 51
11.669057
  0
CIRCLE
  8
LC-003-002-----0
 62
     1
  6
CONTINUOUS
 10
1131.581543
 20
615.382385
 40
13.000000
  0
LINE
  8
LC-005-002-RND-0
 62
     2
  6
DASHDOT
 10
1131.581543
 20
357.280334
 11
1131.581543
 21
392.311279
  0
LINE
  8
LC-005-002-RND-0
 62
     2
  6
DASHDOT
 10
1113.319946
 20
375.382385
 11
1149.547852
 21
375.382385
  0
ARC
  8
LC-006-012-----0
 62
     2
  6
CONTINUOUS
 10
781.581604
 20
375.382385
 40
8.000000
 50
79.705951
 51
11.669057
  0
CIRCLE
  8
LC-003-002-----0
 62
     1
  6
CONTINUOUS
 10
1131.581543
 20
375.382385
 40
13.000000
  0
LINE
  8
LC-005-002-RND-0
 62
     2
  6
DASHDOT
 10
760.168274
 20
571.382385
 11
1152.116699
 21
571.382385
  0
LINE
  8
LC-004-006-----0
 62
     2
  6
DASHED
 10
816.581604
 20
596.382385
 11
1096.581543
 21
596.382385
  0
LINE
  8
LC-004-006-----0
 62
     2
  6
DASHED
 10
816.581604
 20
546.382385
 11
1096.581543
 21
546.382385
  0
LINE
  8
LC-004-006-----0
 62
     2
  6
DASHED
 10
816.581604
 20
608.882385
 11
916.581604
 21
608.882385
  0
LINE
  8
LC-004-006-----0
 62
     2
  6
DASHED
 10
816.581604
 20
533.882385
 11
916.581604
 21
533.882385
  0
LINE
  8
LC-004-006-----0
 62
     2
  6
DASHED
 10
916.581604
 20
608.882385
 11
916.581604
 21
533.882385
  0
LINE
  8
LC-004-006-----0
 62
     2
  6
DASHED
 10
996.581604
 20
608.882385
 11
996.581604
 21
533.882385
  0
LINE
  8
LC-004-006-----0
 62
     2
  6
DASHED
 10
916.581604
 20
533.882385
 11
996.581604
 21
533.882385
  0
LINE
  8
LC-004-006-----0
 62
     2
  6
DASHED
 10
996.581604
 20
533.882385
 11
1096.581543
 21
533.882385
  0
LINE
  8
LC-004-006-----0
 62
     2
  6
DASHED
 10
916.581604
 20
608.882385
 11
996.581604
 21
608.882385
  0
LINE
  8
LC-004-006-----0
 62
     2
  6
DASHED
 10
996.581604
 20
608.882385
 11
1096.581543
 21
608.882385
  0
LINE
  8
LC-003-002-----0
 62
     1
  6
CONTINUOUS
 10
796.581604
 20
596.382385
 11
816.581604
 21
596.382385
  0
LINE
  8
LC-003-002-----0
 62
     1
  6
CONTINUOUS
 10
796.581604
 20
546.382385
 11
816.581604
 21
546.382385
  0
LINE
  8
LC-004-006-----0
 62
     2
  6
DASHED
 10
766.581604
 20
546.382385
 11
796.581604
 21
546.382385
  0
LINE
  8
LC-004-006-----0
 62
     2
  6
DASHED
 10
766.581604
 20
596.382385
 11
796.581604
 21
596.382385
  0
LINE
  8
LC-003-002-----0
 62
     1
  6
CONTINUOUS
 10
1096.581543
 20
596.382385
 11
1116.581543
 21
596.382385
  0
LINE
  8
LC-003-002-----0
 62
     1
  6
CONTINUOUS
 10
1096.581543
 20
546.382385
 11
1116.581543
 21
546.382385
  0
LINE
  8
LC-004-006-----0
 62
     2
  6
DASHED
 10
1146.581543
 20
546.382385
 11
1116.581543
 21
546.382385
  0
LINE
  8
LC-004-006-----0
 62
     2
  6
DASHED
 10
1146.581543
 20
596.382385
 11
1116.581543
 21
596.382385
  0
LINE
  8
LC-005-002-RND-0
 62
     2
  6
DASHDOT
 10
760.168274
 20
419.382385
 11
1152.116699
 21
419.382385
  0
LINE
  8
LC-004-006-----0
 62
     2
  6
DASHED
 10
816.581604
 20
394.382385
 11
1096.581543
 21
394.382385
  0
LINE
  8
LC-004-006-----0
 62
     2
  6
DASHED
 10
816.581604
 20
444.382385
 11
1096.581543
 21
444.382385
  0
LINE
  8
LC-004-006-----0
 62
     2
  6
DASHED
 10
816.581604
 20
381.882385
 11
916.581604
 21
381.882385
  0
LINE
  8
LC-004-006-----0
 62
     2
  6
DASHED
 10
816.581604
 20
456.882385
 11
916.581604
 21
456.882385
  0
LINE
  8
LC-004-006-----0
 62
     2
  6
DASHED
 10
916.581604
 20
381.882385
 11
916.581604
 21
456.882385
  0
LINE
  8
LC-004-006-----0
 62
     2
  6
DASHED
 10
996.581604
 20
381.882385
 11
996.581604
 21
456.882385
  0
LINE
  8
LC-004-006-----0
 62
     2
  6
DASHED
 10
916.581604
 20
456.882385
 11
996.581604
 21
456.882385
  0
LINE
  8
LC-004-006-----0
 62
     2
  6
DASHED
 10
996.581604
 20
456.882385
 11
1096.581543
 21
456.882385
  0
LINE
  8
LC-004-006-----0
 62
     2
  6
DASHED
 10
916.581604
 20
381.882385
 11
996.581604
 21
381.882385
  0
LINE
  8
LC-004-006-----0
 62
     2
  6
DASHED
 10
996.581604
 20
381.882385
 11
1096.581543
 21
381.882385
  0
LINE
  8
LC-003-002-----0
 62
     1
  6
CONTINUOUS
 10
796.581604
 20
394.382385
 11
816.581604
 21
394.382385
  0
LINE
  8
LC-003-002-----0
 62
     1
  6
CONTINUOUS
 10
796.581604
 20
444.382385
 11
816.581604
 21
444.382385
  0
LINE
  8
LC-004-006-----0
 62
     2
  6
DASHED
 10
766.581604
 20
444.382385
 11
796.581604
 21
444.382385
  0
LINE
  8
LC-004-006-----0
 62
     2
  6
DASHED
 10
766.581604
 20
394.382385
 11
796.581604
 21
394.382385
  0
LINE
  8
LC-003-002-----0
 62
     1
  6
CONTINUOUS
 10
1096.581543
 20
444.382385
 11
1116.581543
 21
444.382385
  0
LINE
  8
LC-004-006-----0
 62
     2
  6
DASHED
 10
1146.581543
 20
444.382385
 11
1116.581543
 21
444.382385
  0
LINE
  8
LC-004-006-----0
 62
     2
  6
DASHED
 10
1146.581543
 20
394.382385
 11
1116.581543
 21
394.382385
  0
LINE
  8
LC-003-002-----0
 62
     1
  6
CONTINUOUS
 10
1096.581543
 20
394.382385
 11
1116.581543
 21
394.382385
  0
LINE
  8
LC-005-002-RND-0
 62
     2
  6
DASHDOT
 10
831.581604
 20
633.491455
 11
831.581604
 21
606.650269
  0
CIRCLE
  8
LC-003-002-----0
 62
     1
  6
CONTINUOUS
 10
831.581604
 20
620.382385
 40
6.750000
  0
LINE
  8
LC-005-002-RND-0
 62
     2
  6
DASHDOT
 10
846.175659
 20
620.382385
 11
818.113464
 21
620.382385
  0
ARC
  8
LC-006-012-----0
 62
     2
  6
CONTINUOUS
 10
831.581604
 20
620.382385
 40
8.000000
 50
81.607134
 51
10.209567
  0
CIRCLE
  8
LC-004-006-----0
 62
     2
  6
DASHED
 10
831.581604
 20
620.382385
 40
10.000000
  0
LINE
  8
LC-005-002-RND-0
 62
     2
  6
DASHDOT
 10
1081.581543
 20
633.491455
 11
1081.581543
 21
606.650269
  0
CIRCLE
  8
LC-003-002-----0
 62
     1
  6
CONTINUOUS
 10
1081.581543
 20
620.382385
 40
6.750000
  0
LINE
  8
LC-005-002-RND-0
 62
     2
  6
DASHDOT
 10
1066.987549
 20
620.382385
 11
1095.049683
 21
620.382385
  0
ARC
  8
LC-006-012-----0
 62
     2
  6
CONTINUOUS
 10
1081.581543
 20
620.382385
 40
8.000000
 50
169.790429
 51
98.392864
  0
CIRCLE
  8
LC-004-006-----0
 62
     2
  6
DASHED
 10
1081.581543
 20
620.382385
 40
10.000000
  0
LINE
  8
LC-005-002-RND-0
 62
     2
  6
DASHDOT
 10
831.581604
 20
357.273315
 11
831.581604
 21
384.114502
  0
CIRCLE
  8
LC-003-002-----0
 62
     1
  6
CONTINUOUS
 10
831.581604
 20
370.382385
 40
6.750000
  0
LINE
  8
LC-005-002-RND-0
 62
     2
  6
DASHDOT
 10
846.175659
 20
370.382385
 11
818.113464
 21
370.382385
  0
ARC
  8
LC-006-012-----0
 62
     2
  6
CONTINUOUS
 10
831.581604
 20
370.382385
 40
8.000000
 50
349.790433
 51
278.392866
  0
CIRCLE
  8
LC-004-006-----0
 62
     2
  6
DASHED
 10
831.581604
 20
370.382385
 40
10.000000
  0
LINE
  8
LC-005-002-RND-0
 62
     2
  6
DASHDOT
 10
1081.581543
 20
357.273315
 11
1081.581543
 21
384.114502
  0
CIRCLE
  8
LC-003-002-----0
 62
     1
  6
CONTINUOUS
 10
1081.581543
 20
370.382385
 40
6.750000
  0
LINE
  8
LC-005-002-RND-0
 62
     2
  6
DASHDOT
 10
1066.987549
 20
370.382385
 11
1095.049683
 21
370.382385
  0
ARC
  8
LC-006-012-----0
 62
     2
  6
CONTINUOUS
 10
1081.581543
 20
370.382385
 40
8.000000
 50
261.607136
 51
190.209571
  0
CIRCLE
  8
LC-004-006-----0
 62
     2
  6
DASHED
 10
1081.581543
 20
370.382385
 40
10.000000
  0
CIRCLE
  8
LC-003-002-----0
 62
     1
  6
CONTINUOUS
 10
1131.581543
 20
615.382385
 40
7.000000
  0
ARC
  8
LC-006-012-----0
 62
     2
  6
CONTINUOUS
 10
1131.581543
 20
615.382385
 40
8.000000
 50
79.705951
 51
11.669057
  0
CIRCLE
  8
LC-003-002-----0
 62
     1
  6
CONTINUOUS
 10
1131.581543
 20
375.382385
 40
7.000000
  0
ARC
  8
LC-006-012-----0
 62
     2
  6
CONTINUOUS
 10
1131.581543
 20
375.382385
 40
8.000000
 50
79.705951
 51
11.669057
  0
LINE
  8
LC-006-012-----0
 62
     2
  6
CONTINUOUS
 10
1434.888062
 20
705.089600
 11
1445.476318
 21
715.677856
  0
LINE
  8
LC-006-012-----0
 62
     2
  6
CONTINUOUS
 10
1426.609497
 20
702.467957
 11
1448.097900
 21
723.956421
  0
LINE
  8
LC-006-012-----0
 62
     2
  6
CONTINUOUS
 10
1420.856079
 20
702.371338
 11
1448.194580
 21
729.709839
  0
LINE
  8
LC-006-012-----0
 62
     2
  6
CONTINUOUS
 10
1416.132202
 20
703.304382
 11
1447.261597
 21
734.433716
  0
LINE
  8
LC-006-012-----0
 62
     2
  6
CONTINUOUS
 10
1412.085449
 20
704.914490
 11
1445.651489
 21
738.480469
  0
LINE
  8
LC-006-012-----0
 62
     2
  6
CONTINUOUS
 10
1408.573486
 20
707.059387
 11
1443.506592
 21
741.992432
  0
LINE
  8
LC-006-012-----0
 62
     2
  6
CONTINUOUS
 10
1405.534302
 20
709.676941
 11
1440.889038
 21
745.031677
  0
LINE
  8
LC-006-012-----0
 62
     2
  6
CONTINUOUS
 10
1402.950439
 20
712.750000
 11
1437.815918
 21
747.615479
  0
LINE
  8
LC-006-012-----0
 62
     2
  6
CONTINUOUS
 10
1400.842163
 20
716.298584
 11
1434.267334
 21
749.723755
  0
LINE
  8
LC-006-012-----0
 62
     2
  6
CONTINUOUS
 10
1399.275757
 20
720.389038
 11
1430.176880
 21
751.290161
  0
LINE
  8
LC-006-012-----0
 62
     2
  6
CONTINUOUS
 10
1398.402344
 20
725.172485
 11
1425.393433
 21
752.163574
  0
LINE
  8
LC-006-012-----0
 62
     2
  6
CONTINUOUS
 10
1398.603394
 20
731.030273
 11
1419.535645
 21
751.962585
  0
LINE
  8
LC-006-012-----0
 62
     2
  6
CONTINUOUS
 10
1401.663940
 20
739.747681
 11
1410.818237
 21
748.902039
  0
LINE
  8
LC-003-002-----0
 62
     1
  6
CONTINUOUS
 10
1207.315918
 20
771.250061
 11
1207.315918
 21
729.250061
  0
LINE
  8
LC-003-002-----0
 62
     1
  6
CONTINUOUS
 10
1487.315796
 20
775.250061
 11
1487.315796
 21
679.250061
  0
LINE
  8
LC-003-002-----0
 62
     1
  6
CONTINUOUS
 10
1207.315918
 20
771.250061
 11
1347.315918
 21
771.250061
  0
LINE
  8
LC-003-002-----0
 62
     1
  6
CONTINUOUS
 10
1207.315918
 20
725.250061
 11
1207.315918
 21
679.250061
  0
LINE
  8
LC-003-002-----0
 62
     1
  6
CONTINUOUS
 10
1212.315918
 20
771.250061
 11
1242.315918
 21
771.250061
  0
CIRCLE
  8
LC-003-002-----0
 62
     1
  6
CONTINUOUS
 10
1271.315918
 20
727.250061
 40
25.000000
  0
LINE
  8
LC-003-002-----0
 62
     1
  6
CONTINUOUS
 10
1207.315918
 20
683.250061
 11
1347.315918
 21
683.250061
  0
LINE
  8
LC-005-002-RND-0
 62
     2
  6
DASHDOT
 10
1227.315918
 20
673.863159
 11
1227.315918
 21
778.986145
  0
LINE
  8
LC-004-006-----0
 62
     2
  6
DASHED
 10
1220.315918
 20
683.250061
 11
1220.315918
 21
725.250061
  0
LINE
  8
LC-004-006-----0
 62
     2
  6
DASHED
 10
1219.315918
 20
683.250061
 11
1219.315918
 21
725.250061
  0
LINE
  8
LC-004-006-----0
 62
     2
  6
DASHED
 10
1240.315918
 20
753.750061
 11
1240.315918
 21
771.250061
  0
LINE
  8
LC-004-006-----0
 62
     2
  6
DASHED
 10
1214.315918
 20
753.750061
 11
1214.315918
 21
771.250061
  0
LINE
  8
LC-004-006-----0
 62
     2
  6
DASHED
 10
1214.315918
 20
753.750061
 11
1240.315918
 21
753.750061
  0
LINE
  8
LC-005-002-RND-0
 62
     2
  6
DASHDOT
 10
1236.771729
 20
727.250061
 11
1304.520752
 21
727.250061
  0
LINE
  8
LC-005-002-RND-0
 62
     2
  6
DASHDOT
 10
1347.315918
 20
786.629395
 11
1347.315918
 21
668.893555
  0
LINE
  8
LC-005-002-RND-0
 62
     2
  6
DASHDOT
 10
1423.315918
 20
767.428467
 11
1423.315918
 21
686.012817
  0
LINE
  8
LC-003-002-----0
 62
     1
  6
CONTINUOUS
 10
1207.315918
 20
729.250061
 11
1246.395996
 21
729.250061
  0
LINE
  8
LC-003-002-----0
 62
     1
  6
CONTINUOUS
 10
1207.315918
 20
725.250061
 11
1246.395996
 21
725.250061
  0
LINE
  8
LC-004-006-----0
 62
     2
  6
DASHED
 10
1218.565918
 20
729.250061
 11
1218.565918
 21
753.750061
  0
LINE
  8
LC-004-006-----0
 62
     2
  6
DASHED
 10
1236.065918
 20
729.250061
 11
1236.065918
 21
753.750061
  0
LINE
  8
LC-003-002-----0
 62
     1
  6
CONTINUOUS
 10
1207.315918
 20
679.250061
 11
1487.315796
 21
679.250061
  0
LINE
  8
LC-003-002-----0
 62
     1
  6
CONTINUOUS
 10
1207.315918
 20
771.250061
 11
1207.315918
 21
775.250061
  0
LINE
  8
LC-003-002-----0
 62
     1
  6
CONTINUOUS
 10
1207.315918
 20
775.250061
 11
1347.315918
 21
775.250061
  0
LINE
  8
LC-003-002-----0
 62
     1
  6
CONTINUOUS
 10
1347.315918
 20
775.250061
 11
1487.315796
 21
775.250061
  0
CIRCLE
  8
LC-003-002-----0
 62
     1
  6
CONTINUOUS
 10
1423.315918
 20
727.250061
 40
25.000000
  0
LINE
  8
LC-005-002-RND-0
 62
     2
  6
DASHDOT
 10
1465.958496
 20
727.250061
 11
1382.260986
 21
727.250061
  0
CIRCLE
  8
LC-003-002-----0
 62
     1
  6
CONTINUOUS
 10
1423.315918
 20
727.250061
 40
37.500000
  0
CIRCLE
  8
LC-003-002-----0
 62
     1
  6
CONTINUOUS
 10
1423.315918
 20
727.250061
 40
33.000000
  0
LINE
  8
LC-004-006-----0
 62
     2
  6
DASHED
 10
1480.315796
 20
741.250061
 11
1480.315796
 21
775.250061
  0
LINE
  8
LC-004-006-----0
 62
     2
  6
DASHED
 10
1464.315918
 20
741.250061
 11
1464.315918
 21
775.250061
  0
LINE
  8
LC-004-006-----0
 62
     2
  6
DASHED
 10
1479.065796
 20
692.250061
 11
1479.065796
 21
775.250061
  0
LINE
  8
LC-004-006-----0
 62
     2
  6
DASHED
 10
1465.565796
 20
692.250061
 11
1465.565796
 21
775.250061
  0
LINE
  8
LC-004-006-----0
 62
     2
  6
DASHED
 10
1464.315918
 20
741.250061
 11
1480.315796
 21
741.250061
  0
LINE
  8
LC-004-006-----0
 62
     2
  6
DASHED
 10
1462.315918
 20
692.250061
 11
1482.315796
 21
692.250061
  0
LINE
  8
LC-004-006-----0
 62
     2
  6
DASHED
 10
1482.315796
 20
679.250061
 11
1482.315796
 21
692.250061
  0
LINE
  8
LC-004-006-----0
 62
     2
  6
DASHED
 10
1462.315918
 20
679.250061
 11
1462.315918
 21
692.250061
  0
LINE
  8
LC-005-002-RND-0
 62
     2
  6
DASHDOT
 10
1271.315918
 20
759.220337
 11
1271.315918
 21
701.318115
  0
LINE
  8
LC-005-002-RND-0
 62
     2
  6
DASHDOT
 10
1472.315796
 20
672.162170
 11
1472.315796
 21
783.184082
  0
LINE
  8
LC-004-006-----0
 62
     2
  6
DASHED
 10
1235.315918
 20
683.250061
 11
1235.315918
 21
725.250061
  0
LINE
  8
LC-004-006-----0
 62
     2
  6
DASHED
 10
1234.315918
 20
683.250061
 11
1234.315918
 21
725.250061
  0
ENDSEC
  0
EOF
