  0
SECTION
  2
HEADER
  9
$LIMMIN
 10
60.326374
 20
56.382973
  9
$LIMMAX
 10
667.614136
 20
409.572693
  9
$EXTMIN
 10
60.326374
 20
56.382973
  9
$EXTMAX
 10
667.614136
 20
409.572693
  0
ENDSEC
  0
SECTION
  2
TABLES
  0
TABLE
  2
LTYPE
 70
     3
  0
LTYPE
  2
CONTINUOUS
 70
    64
  3
Ausgezogene Linie
 72
    65
 73
     0
 40
0.0
  0
LTYPE
  2
DASHED
 70
    64
  3
__ __ __ __ __ __ __ __ __ __ __ __ __ __ __
 72
    65
 73
     2
 40
0.75
 49
0.5
 49
-0.25
  0
LTYPE
  2
DASHDOT
 70
    64
  3
__ . __ . __ . __ . __ . __ . __ . __ . __ . __
 72
    65
 73
     4
 40
1.0
 49
0.5
 49
-0.25
 49
0.0
 49
-0.25
  0
ENDTAB
  0
TABLE
  2
LAYER
 70
     5
  0
LAYER
  2
LC-INFO-1-1-MM-A0-0
 70
    64
 62
     7
  6
CONTINUOUS
  0
LAYER
  2
LC-003-002-----0
 70
    64
 62
     7
  6
CONTINUOUS
  0
LAYER
  2
LC-005-002-RND-0
 70
    64
 62
     7
  6
CONTINUOUS
  0
LAYER
  2
LC-004-006-----0
 70
    64
 62
     7
  6
CONTINUOUS
  0
LAYER
  2
LC-006-012-----0
 70
    64
 62
     7
  6
CONTINUOUS
  0
ENDTAB
  0
TABLE
  2
STYLE
 70
     1
  0
STYLE
  2
TXT8
 70
    64
 40
0.0
 41
1.0
 50
0.0
 71
     0
 42
3.500000
  3
TXT8
  4

  0
ENDTAB
  0
ENDSEC
  0
SECTION
  2
BLOCKS
  0
ENDSEC
  0
SECTION
  2
ENTITIES
  0
LINE
  8
LC-006-012-----0
 62
     2
  6
CONTINUOUS
 10
623.096924
 20
232.773972
 11
631.223145
 21
240.900208
  0
LINE
  8
LC-006-012-----0
 62
     2
  6
CONTINUOUS
 10
616.703308
 20
230.622986
 11
633.374146
 21
247.293839
  0
LINE
  8
LC-006-012-----0
 62
     2
  6
CONTINUOUS
 10
612.266113
 20
230.428452
 11
633.568665
 21
251.731003
  0
LINE
  8
LC-006-012-----0
 62
     2
  6
CONTINUOUS
 10
608.613281
 20
231.018280
 11
632.978821
 21
255.383820
  0
LINE
  8
LC-006-012-----0
 62
     2
  6
CONTINUOUS
 10
605.469055
 20
232.116684
 11
631.880432
 21
258.528046
  0
LINE
  8
LC-006-012-----0
 62
     2
  6
CONTINUOUS
 10
602.720093
 20
233.610367
 11
630.386719
 21
261.277008
  0
LINE
  8
LC-006-012-----0
 62
     2
  6
CONTINUOUS
 10
600.313660
 20
235.446548
 11
628.550598
 21
263.683472
  0
LINE
  8
LC-006-012-----0
 62
     2
  6
CONTINUOUS
 10
598.228821
 20
237.604385
 11
626.392761
 21
265.768280
  0
LINE
  8
LC-006-012-----0
 62
     2
  6
CONTINUOUS
 10
596.468262
 20
240.086441
 11
623.910706
 21
267.528870
  0
LINE
  8
LC-006-012-----0
 62
     2
  6
CONTINUOUS
 10
595.058838
 20
242.919662
 11
621.077454
 21
268.938263
  0
LINE
  8
LC-006-012-----0
 62
     2
  6
CONTINUOUS
 10
594.063538
 20
246.167007
 11
617.830078
 21
269.933563
  0
LINE
  8
LC-006-012-----0
 62
     2
  6
CONTINUOUS
 10
593.618530
 20
249.964630
 11
614.032471
 21
270.378601
  0
LINE
  8
LC-006-012-----0
 62
     2
  6
CONTINUOUS
 10
594.078369
 20
254.667130
 11
609.330017
 21
269.918732
  0
LINE
  8
LC-006-012-----0
 62
     2
  6
CONTINUOUS
 10
597.815613
 20
262.646973
 11
601.350159
 21
266.181519
  0
LINE
  8
LC-006-012-----0
 62
     2
  6
CONTINUOUS
 10
499.138855
 20
231.852493
 11
510.144623
 21
242.858261
  0
LINE
  8
LC-006-012-----0
 62
     2
  6
CONTINUOUS
 10
493.517456
 20
230.473740
 11
511.523376
 21
248.479645
  0
LINE
  8
LC-006-012-----0
 62
     2
  6
CONTINUOUS
 10
489.316467
 20
230.515396
 11
511.481720
 21
252.680649
  0
LINE
  8
LC-006-012-----0
 62
     2
  6
CONTINUOUS
 10
485.803955
 20
231.245529
 11
510.751587
 21
256.193146
  0
LINE
  8
LC-006-012-----0
 62
     2
  6
CONTINUOUS
 10
482.763641
 20
232.447845
 11
509.549255
 21
259.233459
  0
LINE
  8
LC-006-012-----0
 62
     2
  6
CONTINUOUS
 10
480.101776
 20
234.028610
 11
507.968506
 21
261.895355
  0
LINE
  8
LC-006-012-----0
 62
     2
  6
CONTINUOUS
 10
477.774872
 20
235.944336
 11
506.052765
 21
264.222260
  0
LINE
  8
LC-006-012-----0
 62
     2
  6
CONTINUOUS
 10
475.768188
 20
238.180298
 11
503.816833
 21
266.228943
  0
LINE
  8
LC-006-012-----0
 62
     2
  6
CONTINUOUS
 10
474.089844
 20
240.744598
 11
501.252533
 21
267.907288
  0
LINE
  8
LC-006-012-----0
 62
     2
  6
CONTINUOUS
 10
472.773926
 20
243.671326
 11
498.325775
 21
269.223206
  0
LINE
  8
LC-006-012-----0
 62
     2
  6
CONTINUOUS
 10
471.896149
 20
247.036194
 11
494.960907
 21
270.100952
  0
LINE
  8
LC-006-012-----0
 62
     2
  6
CONTINUOUS
 10
471.623871
 20
251.006546
 11
490.990570
 21
270.373260
  0
LINE
  8
LC-006-012-----0
 62
     2
  6
CONTINUOUS
 10
472.437653
 20
256.062988
 11
485.934143
 21
269.559448
  0
LINE
  8
LC-003-002-----0
 62
     1
  6
CONTINUOUS
 10
66.632454
 20
400.580841
 11
66.632454
 21
320.580841
  0
LINE
  8
LC-003-002-----0
 62
     1
  6
CONTINUOUS
 10
66.632454
 20
320.580841
 11
96.632454
 21
320.580841
  0
LINE
  8
LC-003-002-----0
 62
     1
  6
CONTINUOUS
 10
96.632454
 20
400.580841
 11
96.632454
 21
320.580841
  0
LINE
  8
LC-003-002-----0
 62
     1
  6
CONTINUOUS
 10
116.632454
 20
404.580841
 11
116.632454
 21
324.580841
  0
LINE
  8
LC-003-002-----0
 62
     1
  6
CONTINUOUS
 10
346.632446
 20
404.580841
 11
346.632446
 21
324.580841
  0
LINE
  8
LC-003-002-----0
 62
     1
  6
CONTINUOUS
 10
116.632454
 20
324.580841
 11
346.632446
 21
324.580841
  0
LINE
  8
LC-003-002-----0
 62
     1
  6
CONTINUOUS
 10
116.632454
 20
404.580841
 11
346.632446
 21
404.580841
  0
LINE
  8
LC-003-002-----0
 62
     1
  6
CONTINUOUS
 10
66.632454
 20
400.580841
 11
96.632454
 21
400.580841
  0
LINE
  8
LC-005-002-RND-0
 62
     2
  6
DASHDOT
 10
81.632454
 20
314.817719
 11
81.632454
 21
405.572693
  0
LINE
  8
LC-004-006-----0
 62
     2
  6
DASHED
 10
90.382454
 20
320.580841
 11
90.382454
 21
362.580841
  0
LINE
  8
LC-004-006-----0
 62
     2
  6
DASHED
 10
72.882454
 20
320.580841
 11
72.882454
 21
362.580841
  0
LINE
  8
LC-004-006-----0
 62
     2
  6
DASHED
 10
68.632454
 20
383.080841
 11
94.632454
 21
383.080841
  0
LINE
  8
LC-004-006-----0
 62
     2
  6
DASHED
 10
94.632454
 20
383.080841
 11
94.632454
 21
400.580841
  0
LINE
  8
LC-004-006-----0
 62
     2
  6
DASHED
 10
68.632454
 20
383.080841
 11
68.632454
 21
400.580841
  0
LINE
  8
LC-005-002-RND-0
 62
     2
  6
DASHDOT
 10
60.326374
 20
364.580841
 11
403.873474
 21
364.580841
  0
LINE
  8
LC-003-002-----0
 62
     1
  6
CONTINUOUS
 10
66.632454
 20
366.580841
 11
96.632454
 21
366.580841
  0
LINE
  8
LC-003-002-----0
 62
     1
  6
CONTINUOUS
 10
66.632454
 20
362.580841
 11
96.632454
 21
362.580841
  0
LINE
  8
LC-004-006-----0
 62
     2
  6
DASHED
 10
72.882454
 20
366.580841
 11
72.882454
 21
383.080841
  0
LINE
  8
LC-004-006-----0
 62
     2
  6
DASHED
 10
90.382454
 20
366.580841
 11
90.382454
 21
383.080841
  0
LINE
  8
LC-004-006-----0
 62
     2
  6
DASHED
 10
66.632454
 20
384.580841
 11
96.632454
 21
384.580841
  0
LINE
  8
LC-004-006-----0
 62
     2
  6
DASHED
 10
66.632454
 20
344.580841
 11
96.632454
 21
344.580841
  0
LINE
  8
LC-003-002-----0
 62
     1
  6
CONTINUOUS
 10
437.614136
 20
320.580841
 11
667.614136
 21
320.580841
  0
LINE
  8
LC-003-002-----0
 62
     1
  6
CONTINUOUS
 10
396.632446
 20
400.580841
 11
396.632446
 21
320.580841
  0
LINE
  8
LC-003-002-----0
 62
     1
  6
CONTINUOUS
 10
396.632446
 20
320.580841
 11
366.632446
 21
320.580841
  0
LINE
  8
LC-003-002-----0
 62
     1
  6
CONTINUOUS
 10
366.632446
 20
400.580841
 11
366.632446
 21
320.580841
  0
LINE
  8
LC-003-002-----0
 62
     1
  6
CONTINUOUS
 10
396.632446
 20
400.580841
 11
366.632446
 21
400.580841
  0
LINE
  8
LC-005-002-RND-0
 62
     2
  6
DASHDOT
 10
381.632446
 20
314.817719
 11
381.632446
 21
405.572693
  0
LINE
  8
LC-004-006-----0
 62
     2
  6
DASHED
 10
372.882446
 20
320.580841
 11
372.882446
 21
362.580841
  0
LINE
  8
LC-004-006-----0
 62
     2
  6
DASHED
 10
390.382446
 20
320.580841
 11
390.382446
 21
362.580841
  0
LINE
  8
LC-004-006-----0
 62
     2
  6
DASHED
 10
394.632446
 20
383.080841
 11
368.632446
 21
383.080841
  0
LINE
  8
LC-004-006-----0
 62
     2
  6
DASHED
 10
368.632446
 20
383.080841
 11
368.632446
 21
400.580841
  0
LINE
  8
LC-004-006-----0
 62
     2
  6
DASHED
 10
394.632446
 20
383.080841
 11
394.632446
 21
400.580841
  0
LINE
  8
LC-003-002-----0
 62
     1
  6
CONTINUOUS
 10
96.632454
 20
344.580841
 11
116.632454
 21
344.580841
  0
LINE
  8
LC-003-002-----0
 62
     1
  6
CONTINUOUS
 10
396.632446
 20
366.580841
 11
366.632446
 21
366.580841
  0
LINE
  8
LC-003-002-----0
 62
     1
  6
CONTINUOUS
 10
396.632446
 20
362.580841
 11
366.632446
 21
362.580841
  0
LINE
  8
LC-004-006-----0
 62
     2
  6
DASHED
 10
390.382446
 20
366.580841
 11
390.382446
 21
383.080841
  0
LINE
  8
LC-004-006-----0
 62
     2
  6
DASHED
 10
372.882446
 20
366.580841
 11
372.882446
 21
383.080841
  0
LINE
  8
LC-004-006-----0
 62
     2
  6
DASHED
 10
396.632446
 20
384.580841
 11
366.632446
 21
384.580841
  0
LINE
  8
LC-004-006-----0
 62
     2
  6
DASHED
 10
396.632446
 20
344.580841
 11
366.632446
 21
344.580841
  0
LINE
  8
LC-003-002-----0
 62
     1
  6
CONTINUOUS
 10
96.632454
 20
384.580841
 11
116.632454
 21
384.580841
  0
LINE
  8
LC-004-006-----0
 62
     2
  6
DASHED
 10
116.632454
 20
384.580841
 11
346.632446
 21
384.580841
  0
LINE
  8
LC-003-002-----0
 62
     1
  6
CONTINUOUS
 10
346.632446
 20
384.580841
 11
366.632446
 21
384.580841
  0
LINE
  8
LC-004-006-----0
 62
     2
  6
DASHED
 10
116.632454
 20
344.580841
 11
346.632446
 21
344.580841
  0
LINE
  8
LC-003-002-----0
 62
     1
  6
CONTINUOUS
 10
346.632446
 20
344.580841
 11
366.632446
 21
344.580841
  0
LINE
  8
LC-005-002-RND-0
 62
     2
  6
DASHDOT
 10
332.632446
 20
318.817719
 11
332.632446
 21
409.572693
  0
LINE
  8
LC-004-006-----0
 62
     2
  6
DASHED
 10
340.632446
 20
370.580841
 11
340.632446
 21
404.580841
  0
LINE
  8
LC-004-006-----0
 62
     2
  6
DASHED
 10
324.632446
 20
370.580841
 11
324.632446
 21
404.580841
  0
LINE
  8
LC-004-006-----0
 62
     2
  6
DASHED
 10
339.382446
 20
337.580841
 11
339.382446
 21
404.580841
  0
LINE
  8
LC-004-006-----0
 62
     2
  6
DASHED
 10
325.882446
 20
337.580841
 11
325.882446
 21
404.580841
  0
LINE
  8
LC-004-006-----0
 62
     2
  6
DASHED
 10
324.632446
 20
370.580841
 11
340.632446
 21
370.580841
  0
LINE
  8
LC-005-002-RND-0
 62
     2
  6
DASHDOT
 10
130.632446
 20
318.817719
 11
130.632446
 21
409.572693
  0
LINE
  8
LC-004-006-----0
 62
     2
  6
DASHED
 10
322.632446
 20
337.580841
 11
342.632446
 21
337.580841
  0
LINE
  8
LC-004-006-----0
 62
     2
  6
DASHED
 10
342.632446
 20
324.580841
 11
342.632446
 21
337.580841
  0
LINE
  8
LC-004-006-----0
 62
     2
  6
DASHED
 10
322.632446
 20
324.580841
 11
322.632446
 21
337.580841
  0
LINE
  8
LC-004-006-----0
 62
     2
  6
DASHED
 10
122.632454
 20
370.580841
 11
122.632454
 21
404.580841
  0
LINE
  8
LC-004-006-----0
 62
     2
  6
DASHED
 10
138.632446
 20
370.580841
 11
138.632446
 21
404.580841
  0
LINE
  8
LC-004-006-----0
 62
     2
  6
DASHED
 10
123.882454
 20
337.580841
 11
123.882454
 21
404.580841
  0
LINE
  8
LC-004-006-----0
 62
     2
  6
DASHED
 10
137.382446
 20
337.580841
 11
137.382446
 21
404.580841
  0
LINE
  8
LC-004-006-----0
 62
     2
  6
DASHED
 10
138.632446
 20
370.580841
 11
122.632462
 21
370.580841
  0
LINE
  8
LC-004-006-----0
 62
     2
  6
DASHED
 10
140.632446
 20
337.580841
 11
120.632462
 21
337.580841
  0
LINE
  8
LC-004-006-----0
 62
     2
  6
DASHED
 10
120.632454
 20
324.580841
 11
120.632454
 21
337.580841
  0
LINE
  8
LC-004-006-----0
 62
     2
  6
DASHED
 10
140.632446
 20
324.580841
 11
140.632446
 21
337.580841
  0
LINE
  8
LC-004-006-----0
 62
     2
  6
DASHED
 10
116.632454
 20
395.580841
 11
196.632446
 21
395.580841
  0
LINE
  8
LC-004-006-----0
 62
     2
  6
DASHED
 10
116.632454
 20
333.580841
 11
196.632446
 21
333.580841
  0
LINE
  8
LC-004-006-----0
 62
     2
  6
DASHED
 10
196.632446
 20
395.580841
 11
196.632446
 21
333.580841
  0
LINE
  8
LC-004-006-----0
 62
     2
  6
DASHED
 10
266.632446
 20
395.580841
 11
266.632446
 21
333.580841
  0
LINE
  8
LC-004-006-----0
 62
     2
  6
DASHED
 10
196.632446
 20
395.580841
 11
266.632446
 21
395.580841
  0
LINE
  8
LC-004-006-----0
 62
     2
  6
DASHED
 10
266.632446
 20
395.580841
 11
346.632446
 21
395.580841
  0
LINE
  8
LC-004-006-----0
 62
     2
  6
DASHED
 10
196.632446
 20
333.580841
 11
266.632446
 21
333.580841
  0
LINE
  8
LC-004-006-----0
 62
     2
  6
DASHED
 10
266.632446
 20
333.580841
 11
346.632446
 21
333.580841
  0
LINE
  8
LC-003-002-----0
 62
     1
  6
CONTINUOUS
 10
66.632454
 20
286.382965
 11
66.632454
 21
56.382980
  0
LINE
  8
LC-003-002-----0
 62
     1
  6
CONTINUOUS
 10
66.632454
 20
56.382973
 11
96.632454
 21
56.382973
  0
LINE
  8
LC-003-002-----0
 62
     1
  6
CONTINUOUS
 10
96.632454
 20
286.382965
 11
96.632454
 21
56.382980
  0
LINE
  8
LC-003-002-----0
 62
     1
  6
CONTINUOUS
 10
116.632454
 20
286.382965
 11
116.632454
 21
56.382980
  0
LINE
  8
LC-003-002-----0
 62
     1
  6
CONTINUOUS
 10
346.632446
 20
286.382965
 11
346.632446
 21
56.382980
  0
LINE
  8
LC-003-002-----0
 62
     1
  6
CONTINUOUS
 10
66.632454
 20
286.382965
 11
96.632454
 21
286.382965
  0
LINE
  8
LC-003-002-----0
 62
     1
  6
CONTINUOUS
 10
116.632454
 20
286.382965
 11
346.632446
 21
286.382965
  0
LINE
  8
LC-003-002-----0
 62
     1
  6
CONTINUOUS
 10
116.632454
 20
56.382973
 11
346.632446
 21
56.382973
  0
LINE
  8
LC-005-002-RND-0
 62
     2
  6
DASHDOT
 10
81.632454
 20
284.361725
 11
81.632454
 21
246.714233
  0
LINE
  8
LC-005-002-RND-0
 62
     2
  6
DASHDOT
 10
99.737740
 20
266.382965
 11
63.395325
 21
266.382965
  0
CIRCLE
  8
LC-003-002-----0
 62
     1
  6
CONTINUOUS
 10
81.632454
 20
266.382965
 40
8.750000
  0
CIRCLE
  8
LC-003-002-----0
 62
     1
  6
CONTINUOUS
 10
81.632454
 20
266.382965
 40
13.000000
  0
LINE
  8
LC-005-002-RND-0
 62
     2
  6
DASHDOT
 10
81.632454
 20
58.404217
 11
81.632454
 21
96.051720
  0
LINE
  8
LC-005-002-RND-0
 62
     2
  6
DASHDOT
 10
99.737740
 20
76.382973
 11
63.395325
 21
76.382973
  0
CIRCLE
  8
LC-003-002-----0
 62
     1
  6
CONTINUOUS
 10
81.632454
 20
76.382973
 40
8.750000
  0
CIRCLE
  8
LC-003-002-----0
 62
     1
  6
CONTINUOUS
 10
81.632454
 20
76.382973
 40
13.000000
  0
LINE
  8
LC-005-002-RND-0
 62
     2
  6
DASHDOT
 10
130.632446
 20
285.370911
 11
130.632446
 21
259.454956
  0
LINE
  8
LC-005-002-RND-0
 62
     2
  6
DASHDOT
 10
143.841461
 20
272.382965
 11
117.776306
 21
272.382965
  0
CIRCLE
  8
LC-003-002-----0
 62
     1
  6
CONTINUOUS
 10
130.632446
 20
272.382965
 40
6.750000
  0
ARC
  8
LC-006-012-----0
 62
     2
  6
CONTINUOUS
 10
130.632446
 20
272.382965
 40
8.000000
 50
81.511717
 51
8.053291
  0
CIRCLE
  8
LC-004-006-----0
 62
     2
  6
DASHED
 10
130.632446
 20
272.382965
 40
10.000000
  0
LINE
  8
LC-005-002-RND-0
 62
     2
  6
DASHDOT
 10
143.841461
 20
70.382973
 11
117.776306
 21
70.382973
  0
CIRCLE
  8
LC-003-002-----0
 62
     1
  6
CONTINUOUS
 10
130.632446
 20
70.382973
 40
6.750000
  0
ARC
  8
LC-006-012-----0
 62
     2
  6
CONTINUOUS
 10
130.632446
 20
70.382973
 40
8.000000
 50
351.946709
 51
278.488283
  0
CIRCLE
  8
LC-004-006-----0
 62
     2
  6
DASHED
 10
130.632446
 20
70.382973
 40
10.000000
  0
LINE
  8
LC-005-002-RND-0
 62
     2
  6
DASHDOT
 10
130.632446
 20
57.395050
 11
130.632446
 21
83.310989
  0
LINE
  8
LC-005-002-RND-0
 62
     2
  6
DASHDOT
 10
332.632446
 20
285.370911
 11
332.632446
 21
259.454956
  0
LINE
  8
LC-005-002-RND-0
 62
     2
  6
DASHDOT
 10
319.423431
 20
272.382965
 11
345.488617
 21
272.382965
  0
CIRCLE
  8
LC-003-002-----0
 62
     1
  6
CONTINUOUS
 10
332.632446
 20
272.382965
 40
6.750000
  0
ARC
  8
LC-006-012-----0
 62
     2
  6
CONTINUOUS
 10
332.632446
 20
272.382965
 40
8.000000
 50
171.946707
 51
98.488288
  0
CIRCLE
  8
LC-004-006-----0
 62
     2
  6
DASHED
 10
332.632446
 20
272.382965
 40
10.000000
  0
LINE
  8
LC-005-002-RND-0
 62
     2
  6
DASHDOT
 10
319.423431
 20
70.382973
 11
345.488617
 21
70.382973
  0
CIRCLE
  8
LC-003-002-----0
 62
     1
  6
CONTINUOUS
 10
332.632446
 20
70.382973
 40
6.750000
  0
ARC
  8
LC-006-012-----0
 62
     2
  6
CONTINUOUS
 10
332.632446
 20
70.382973
 40
8.000000
 50
261.511712
 51
188.053293
  0
CIRCLE
  8
LC-004-006-----0
 62
     2
  6
DASHED
 10
332.632446
 20
70.382973
 40
10.000000
  0
LINE
  8
LC-005-002-RND-0
 62
     2
  6
DASHDOT
 10
332.632446
 20
57.395050
 11
332.632446
 21
83.310989
  0
LINE
  8
LC-003-002-----0
 62
     1
  6
CONTINUOUS
 10
396.632446
 20
286.382965
 11
396.632446
 21
56.382980
  0
LINE
  8
LC-003-002-----0
 62
     1
  6
CONTINUOUS
 10
396.632446
 20
56.382973
 11
366.632446
 21
56.382973
  0
LINE
  8
LC-003-002-----0
 62
     1
  6
CONTINUOUS
 10
366.632446
 20
286.382965
 11
366.632446
 21
56.382980
  0
LINE
  8
LC-003-002-----0
 62
     1
  6
CONTINUOUS
 10
396.632446
 20
286.382965
 11
366.632446
 21
286.382965
  0
LINE
  8
LC-005-002-RND-0
 62
     2
  6
DASHDOT
 10
381.632446
 20
284.361725
 11
381.632446
 21
246.714233
  0
LINE
  8
LC-005-002-RND-0
 62
     2
  6
DASHDOT
 10
363.527161
 20
266.382965
 11
399.869598
 21
266.382965
  0
CIRCLE
  8
LC-003-002-----0
 62
     1
  6
CONTINUOUS
 10
381.632446
 20
266.382965
 40
8.750000
  0
CIRCLE
  8
LC-003-002-----0
 62
     1
  6
CONTINUOUS
 10
381.632446
 20
266.382965
 40
13.000000
  0
LINE
  8
LC-005-002-RND-0
 62
     2
  6
DASHDOT
 10
381.632446
 20
58.404217
 11
381.632446
 21
96.051720
  0
LINE
  8
LC-005-002-RND-0
 62
     2
  6
DASHDOT
 10
363.527161
 20
76.382973
 11
399.869598
 21
76.382973
  0
CIRCLE
  8
LC-003-002-----0
 62
     1
  6
CONTINUOUS
 10
381.632446
 20
76.382973
 40
8.750000
  0
CIRCLE
  8
LC-003-002-----0
 62
     1
  6
CONTINUOUS
 10
381.632446
 20
76.382973
 40
13.000000
  0
LINE
  8
LC-005-002-RND-0
 62
     2
  6
DASHDOT
 10
60.326374
 20
232.382980
 11
403.873474
 21
232.382980
  0
LINE
  8
LC-004-006-----0
 62
     2
  6
DASHED
 10
116.632454
 20
252.382980
 11
346.632446
 21
252.382980
  0
LINE
  8
LC-004-006-----0
 62
     2
  6
DASHED
 10
116.632454
 20
212.382980
 11
346.632446
 21
212.382980
  0
LINE
  8
LC-004-006-----0
 62
     2
  6
DASHED
 10
116.632454
 20
263.382965
 11
196.632446
 21
263.382965
  0
LINE
  8
LC-004-006-----0
 62
     2
  6
DASHED
 10
116.632454
 20
201.382980
 11
196.632446
 21
201.382980
  0
LINE
  8
LC-004-006-----0
 62
     2
  6
DASHED
 10
196.632446
 20
263.382965
 11
196.632446
 21
201.382996
  0
LINE
  8
LC-004-006-----0
 62
     2
  6
DASHED
 10
266.632446
 20
263.382965
 11
266.632446
 21
201.382996
  0
LINE
  8
LC-004-006-----0
 62
     2
  6
DASHED
 10
196.632446
 20
263.382965
 11
266.632446
 21
263.382965
  0
LINE
  8
LC-004-006-----0
 62
     2
  6
DASHED
 10
266.632446
 20
263.382965
 11
346.632446
 21
263.382965
  0
LINE
  8
LC-004-006-----0
 62
     2
  6
DASHED
 10
196.632446
 20
201.382980
 11
266.632446
 21
201.382980
  0
LINE
  8
LC-004-006-----0
 62
     2
  6
DASHED
 10
266.632446
 20
201.382980
 11
346.632446
 21
201.382980
  0
LINE
  8
LC-003-002-----0
 62
     1
  6
CONTINUOUS
 10
96.632454
 20
252.382980
 11
116.632454
 21
252.382980
  0
LINE
  8
LC-003-002-----0
 62
     1
  6
CONTINUOUS
 10
96.632454
 20
212.382980
 11
116.632454
 21
212.382980
  0
LINE
  8
LC-003-002-----0
 62
     1
  6
CONTINUOUS
 10
346.632446
 20
212.382980
 11
366.632446
 21
212.382980
  0
LINE
  8
LC-003-002-----0
 62
     1
  6
CONTINUOUS
 10
346.632446
 20
252.382980
 11
366.632446
 21
252.382980
  0
LINE
  8
LC-004-006-----0
 62
     2
  6
DASHED
 10
396.632446
 20
252.382980
 11
366.632446
 21
252.382980
  0
LINE
  8
LC-004-006-----0
 62
     2
  6
DASHED
 10
396.632446
 20
212.382980
 11
366.632446
 21
212.382980
  0
LINE
  8
LC-004-006-----0
 62
     2
  6
DASHED
 10
66.632454
 20
212.382980
 11
96.632454
 21
212.382980
  0
LINE
  8
LC-004-006-----0
 62
     2
  6
DASHED
 10
66.632454
 20
252.382980
 11
96.632454
 21
252.382980
  0
LINE
  8
LC-005-002-RND-0
 62
     2
  6
DASHDOT
 10
60.326374
 20
110.382973
 11
403.873474
 21
110.382973
  0
LINE
  8
LC-004-006-----0
 62
     2
  6
DASHED
 10
116.632454
 20
90.382973
 11
346.632446
 21
90.382973
  0
LINE
  8
LC-004-006-----0
 62
     2
  6
DASHED
 10
116.632454
 20
130.382980
 11
346.632446
 21
130.382980
  0
LINE
  8
LC-004-006-----0
 62
     2
  6
DASHED
 10
116.632454
 20
79.382973
 11
196.632446
 21
79.382973
  0
LINE
  8
LC-004-006-----0
 62
     2
  6
DASHED
 10
116.632454
 20
141.382980
 11
196.632446
 21
141.382980
  0
LINE
  8
LC-004-006-----0
 62
     2
  6
DASHED
 10
196.632446
 20
79.382973
 11
196.632446
 21
141.382980
  0
LINE
  8
LC-004-006-----0
 62
     2
  6
DASHED
 10
266.632446
 20
79.382973
 11
266.632446
 21
141.382980
  0
LINE
  8
LC-004-006-----0
 62
     2
  6
DASHED
 10
196.632446
 20
79.382973
 11
266.632446
 21
79.382973
  0
LINE
  8
LC-004-006-----0
 62
     2
  6
DASHED
 10
266.632446
 20
79.382973
 11
346.632446
 21
79.382973
  0
LINE
  8
LC-004-006-----0
 62
     2
  6
DASHED
 10
196.632446
 20
141.382980
 11
266.632446
 21
141.382980
  0
LINE
  8
LC-004-006-----0
 62
     2
  6
DASHED
 10
266.632446
 20
141.382980
 11
346.632446
 21
141.382980
  0
LINE
  8
LC-003-002-----0
 62
     1
  6
CONTINUOUS
 10
96.632454
 20
90.382973
 11
116.632454
 21
90.382973
  0
LINE
  8
LC-003-002-----0
 62
     1
  6
CONTINUOUS
 10
96.632454
 20
130.382980
 11
116.632454
 21
130.382980
  0
LINE
  8
LC-004-006-----0
 62
     2
  6
DASHED
 10
66.632454
 20
130.382980
 11
96.632454
 21
130.382980
  0
LINE
  8
LC-004-006-----0
 62
     2
  6
DASHED
 10
66.632454
 20
90.382973
 11
96.632454
 21
90.382973
  0
LINE
  8
LC-003-002-----0
 62
     1
  6
CONTINUOUS
 10
346.632446
 20
130.382980
 11
366.632446
 21
130.382980
  0
LINE
  8
LC-003-002-----0
 62
     1
  6
CONTINUOUS
 10
346.632446
 20
90.382973
 11
366.632446
 21
90.382973
  0
LINE
  8
LC-004-006-----0
 62
     2
  6
DASHED
 10
396.632446
 20
130.382980
 11
366.632446
 21
130.382980
  0
LINE
  8
LC-004-006-----0
 62
     2
  6
DASHED
 10
396.632446
 20
90.382973
 11
366.632446
 21
90.382973
  0
LINE
  8
LC-003-002-----0
 62
     1
  6
CONTINUOUS
 10
667.614136
 20
320.580841
 11
667.614136
 21
362.580841
  0
LINE
  8
LC-003-002-----0
 62
     1
  6
CONTINUOUS
 10
437.614136
 20
400.580841
 11
667.614136
 21
400.580841
  0
LINE
  8
LC-003-002-----0
 62
     1
  6
CONTINUOUS
 10
437.614136
 20
320.580841
 11
437.614136
 21
362.580841
  0
LINE
  8
LC-005-002-RND-0
 62
     2
  6
DASHDOT
 10
491.614136
 20
338.630005
 11
491.614136
 21
390.238770
  0
LINE
  8
LC-005-002-RND-0
 62
     2
  6
DASHDOT
 10
457.614136
 20
314.817719
 11
457.614136
 21
405.572693
  0
LINE
  8
LC-004-006-----0
 62
     2
  6
DASHED
 10
448.864136
 20
320.580841
 11
448.864136
 21
362.580841
  0
LINE
  8
LC-004-006-----0
 62
     2
  6
DASHED
 10
466.364136
 20
320.580841
 11
466.364136
 21
362.580841
  0
LINE
  8
LC-004-006-----0
 62
     2
  6
DASHED
 10
470.614136
 20
383.080841
 11
444.614136
 21
383.080841
  0
LINE
  8
LC-004-006-----0
 62
     2
  6
DASHED
 10
444.614136
 20
383.080841
 11
444.614136
 21
400.580841
  0
LINE
  8
LC-004-006-----0
 62
     2
  6
DASHED
 10
470.614136
 20
383.080841
 11
470.614136
 21
400.580841
  0
LINE
  8
LC-004-006-----0
 62
     2
  6
DASHED
 10
466.364136
 20
366.580841
 11
466.364136
 21
383.080841
  0
LINE
  8
LC-004-006-----0
 62
     2
  6
DASHED
 10
448.864136
 20
366.580841
 11
448.864136
 21
383.080841
  0
LINE
  8
LC-003-002-----0
 62
     1
  6
CONTINUOUS
 10
471.714386
 20
366.580841
 11
437.614136
 21
366.580841
  0
LINE
  8
LC-003-002-----0
 62
     1
  6
CONTINUOUS
 10
471.714386
 20
362.580841
 11
437.614136
 21
362.580841
  0
LINE
  8
LC-005-002-RND-0
 62
     2
  6
DASHDOT
 10
465.671600
 20
364.580841
 11
517.258728
 21
364.580841
  0
CIRCLE
  8
LC-003-002-----0
 62
     1
  6
CONTINUOUS
 10
491.614136
 20
364.580841
 40
20.000000
  0
LINE
  8
LC-003-002-----0
 62
     1
  6
CONTINUOUS
 10
437.614136
 20
366.580841
 11
437.614136
 21
400.580841
  0
LINE
  8
LC-005-002-RND-0
 62
     2
  6
DASHDOT
 10
613.614136
 20
338.630005
 11
613.614136
 21
390.238770
  0
LINE
  8
LC-005-002-RND-0
 62
     2
  6
DASHDOT
 10
647.614136
 20
314.817719
 11
647.614136
 21
405.572693
  0
LINE
  8
LC-004-006-----0
 62
     2
  6
DASHED
 10
656.364136
 20
320.580841
 11
656.364136
 21
362.580841
  0
LINE
  8
LC-004-006-----0
 62
     2
  6
DASHED
 10
638.864136
 20
320.580841
 11
638.864136
 21
362.580841
  0
LINE
  8
LC-004-006-----0
 62
     2
  6
DASHED
 10
634.614136
 20
383.080841
 11
660.614136
 21
383.080841
  0
LINE
  8
LC-004-006-----0
 62
     2
  6
DASHED
 10
660.614136
 20
383.080841
 11
660.614136
 21
400.580841
  0
LINE
  8
LC-004-006-----0
 62
     2
  6
DASHED
 10
634.614136
 20
383.080841
 11
634.614136
 21
400.580841
  0
LINE
  8
LC-004-006-----0
 62
     2
  6
DASHED
 10
638.864136
 20
366.580841
 11
638.864136
 21
383.080841
  0
LINE
  8
LC-004-006-----0
 62
     2
  6
DASHED
 10
656.364136
 20
366.580841
 11
656.364136
 21
383.080841
  0
LINE
  8
LC-003-002-----0
 62
     1
  6
CONTINUOUS
 10
633.513916
 20
366.580841
 11
667.614136
 21
366.580841
  0
LINE
  8
LC-003-002-----0
 62
     1
  6
CONTINUOUS
 10
633.513916
 20
362.580841
 11
667.614136
 21
362.580841
  0
LINE
  8
LC-005-002-RND-0
 62
     2
  6
DASHDOT
 10
639.556702
 20
364.580841
 11
587.969543
 21
364.580841
  0
CIRCLE
  8
LC-003-002-----0
 62
     1
  6
CONTINUOUS
 10
613.614136
 20
364.580841
 40
20.000000
  0
LINE
  8
LC-003-002-----0
 62
     1
  6
CONTINUOUS
 10
667.614136
 20
366.580841
 11
667.614136
 21
400.580841
  0
LINE
  8
LC-003-002-----0
 62
     1
  6
CONTINUOUS
 10
437.614136
 20
404.580841
 11
667.614136
 21
404.580841
  0
LINE
  8
LC-003-002-----0
 62
     1
  6
CONTINUOUS
 10
437.614136
 20
400.580841
 11
437.614136
 21
404.580841
  0
LINE
  8
LC-003-002-----0
 62
     1
  6
CONTINUOUS
 10
667.614136
 20
400.580841
 11
667.614136
 21
404.580841
  0
LINE
  8
LC-003-002-----0
 62
     1
  6
CONTINUOUS
 10
437.614136
 20
206.382980
 11
667.614136
 21
206.382980
  0
LINE
  8
LC-003-002-----0
 62
     1
  6
CONTINUOUS
 10
667.614136
 20
206.382980
 11
667.614136
 21
286.382965
  0
LINE
  8
LC-003-002-----0
 62
     1
  6
CONTINUOUS
 10
437.614136
 20
286.382965
 11
667.614136
 21
286.382965
  0
LINE
  8
LC-004-006-----0
 62
     2
  6
DASHED
 10
645.614136
 20
252.382980
 11
645.614136
 21
286.382965
  0
LINE
  8
LC-005-002-RND-0
 62
     2
  6
DASHDOT
 10
491.614136
 20
215.466309
 11
491.614136
 21
284.986298
  0
LINE
  8
LC-004-006-----0
 62
     2
  6
DASHED
 10
459.614136
 20
252.382980
 11
459.614136
 21
286.382965
  0
LINE
  8
LC-004-006-----0
 62
     2
  6
DASHED
 10
443.614136
 20
252.382980
 11
443.614136
 21
286.382965
  0
LINE
  8
LC-004-006-----0
 62
     2
  6
DASHED
 10
458.364136
 20
219.382980
 11
458.364136
 21
286.382965
  0
LINE
  8
LC-004-006-----0
 62
     2
  6
DASHED
 10
444.864136
 20
219.382980
 11
444.864136
 21
286.382965
  0
LINE
  8
LC-004-006-----0
 62
     2
  6
DASHED
 10
443.614136
 20
252.382980
 11
459.614136
 21
252.382980
  0
LINE
  8
LC-004-006-----0
 62
     2
  6
DASHED
 10
441.614136
 20
219.382980
 11
461.614136
 21
219.382980
  0
LINE
  8
LC-004-006-----0
 62
     2
  6
DASHED
 10
461.614136
 20
206.382980
 11
461.614136
 21
219.382980
  0
LINE
  8
LC-004-006-----0
 62
     2
  6
DASHED
 10
441.614136
 20
206.382980
 11
441.614136
 21
219.382980
  0
LINE
  8
LC-005-002-RND-0
 62
     2
  6
DASHDOT
 10
451.614136
 20
200.619858
 11
451.614136
 21
291.374817
  0
LINE
  8
LC-005-002-RND-0
 62
     2
  6
DASHDOT
 10
455.876770
 20
250.382980
 11
528.255981
 21
250.382980
  0
CIRCLE
  8
LC-003-002-----0
 62
     1
  6
CONTINUOUS
 10
491.614136
 20
250.382980
 40
20.000000
  0
LINE
  8
LC-003-002-----0
 62
     1
  6
CONTINUOUS
 10
437.614136
 20
206.382980
 11
437.614136
 21
286.382965
  0
LINE
  8
LC-004-006-----0
 62
     2
  6
DASHED
 10
661.614136
 20
252.382980
 11
661.614136
 21
286.382965
  0
LINE
  8
LC-004-006-----0
 62
     2
  6
DASHED
 10
646.864136
 20
219.382980
 11
646.864136
 21
286.382965
  0
LINE
  8
LC-004-006-----0
 62
     2
  6
DASHED
 10
660.364136
 20
219.382980
 11
660.364136
 21
286.382965
  0
LINE
  8
LC-004-006-----0
 62
     2
  6
DASHED
 10
661.614136
 20
252.382980
 11
645.614136
 21
252.382980
  0
LINE
  8
LC-004-006-----0
 62
     2
  6
DASHED
 10
663.614136
 20
219.382980
 11
643.614136
 21
219.382980
  0
LINE
  8
LC-004-006-----0
 62
     2
  6
DASHED
 10
643.614136
 20
206.382980
 11
643.614136
 21
219.382980
  0
LINE
  8
LC-004-006-----0
 62
     2
  6
DASHED
 10
663.614136
 20
206.382980
 11
663.614136
 21
219.382980
  0
LINE
  8
LC-005-002-RND-0
 62
     2
  6
DASHDOT
 10
653.614136
 20
200.619858
 11
653.614136
 21
291.374817
  0
CIRCLE
  8
LC-003-002-----0
 62
     1
  6
CONTINUOUS
 10
491.614136
 20
250.382980
 40
31.000000
  0
LINE
  8
LC-005-002-RND-0
 62
     2
  6
DASHDOT
 10
613.614136
 20
215.466309
 11
613.614136
 21
284.986298
  0
LINE
  8
LC-005-002-RND-0
 62
     2
  6
DASHDOT
 10
649.351501
 20
250.382980
 11
576.972290
 21
250.382980
  0
CIRCLE
  8
LC-003-002-----0
 62
     1
  6
CONTINUOUS
 10
491.614136
 20
250.382980
 40
28.000000
  0
LINE
  8
LC-003-002-----0
 62
     1
  6
CONTINUOUS
 10
437.614136
 20
202.382980
 11
667.614136
 21
202.382980
  0
LINE
  8
LC-003-002-----0
 62
     1
  6
CONTINUOUS
 10
437.614136
 20
206.382980
 11
437.614136
 21
202.382980
  0
LINE
  8
LC-003-002-----0
 62
     1
  6
CONTINUOUS
 10
667.614136
 20
206.382980
 11
667.614136
 21
202.382980
  0
CIRCLE
  8
LC-003-002-----0
 62
     1
  6
CONTINUOUS
 10
613.614136
 20
250.382980
 40
20.000000
  0
CIRCLE
  8
LC-003-002-----0
 62
     1
  6
CONTINUOUS
 10
613.614136
 20
250.382980
 40
31.000000
  0
CIRCLE
  8
LC-003-002-----0
 62
     1
  6
CONTINUOUS
 10
613.614136
 20
250.382980
 40
28.000000
  0
ENDSEC
  0
EOF
