  0
SECTION
  2
HEADER
  9
$LIMMIN
 10
72.971252
 20
341.199799
  9
$LIMMAX
 10
324.923920
 20
543.907593
  9
$EXTMIN
 10
72.971252
 20
341.199799
  9
$EXTMAX
 10
324.923920
 20
543.907593
  0
ENDSEC
  0
SECTION
  2
TABLES
  0
TABLE
  2
LTYPE
 70
     4
  0
LTYPE
  2
CONTINUOUS
 70
    64
  3
Ausgezogene Linie
 72
    65
 73
     0
 40
0.0
  0
LTYPE
  2
DASHED
 70
    64
  3
__ __ __ __ __ __ __ __ __ __ __ __ __ __ __
 72
    65
 73
     2
 40
0.75
 49
0.5
 49
-0.25
  0
LTYPE
  2
DASHDOT
 70
    64
  3
__ . __ . __ . __ . __ . __ . __ . __ . __ . __
 72
    65
 73
     4
 40
1.0
 49
0.5
 49
-0.25
 49
0.0
 49
-0.25
  0
LTYPE
  2
DIVIDE
 70
    64
  3
__ . . __ . . __ . . __ . . __ . . __ . . __
 72
    65
 73
     6
 40
1.25
 49
0.5
 49
-0.25
 49
0.0
 49
-0.25
 49
0.0
 49
-0.25
  0
ENDTAB
  0
TABLE
  2
LAYER
 70
     4
  0
LAYER
  2
LC-003-002-----0
 70
    64
 62
     7
  6
CONTINUOUS
  0
LAYER
  2
LC-004-006-----0
 70
    64
 62
     7
  6
CONTINUOUS
  0
LAYER
  2
LC-006-012-----0
 70
    64
 62
     7
  6
CONTINUOUS
  0
LAYER
  2
LC-008-003-----0
 70
    64
 62
     7
  6
CONTINUOUS
  0
ENDTAB
  0
TABLE
  2
STYLE
 70
     1
  0
STYLE
  2
TXT8
 70
    64
 40
0.0
 41
1.0
 50
0.0
 71
     0
 42
3.500000
  3
TXT8
  4

  0
ENDTAB
  0
ENDSEC
  0
SECTION
  2
BLOCKS
  0
ENDSEC
  0
SECTION
  2
ENTITIES
  0
LINE
  8
LC-008-003-----0
 62
     2
  6
DIVIDE
 10
120.112465
 20
492.417328
 11
102.362465
 21
492.417328
  0
LINE
  8
LC-003-002-----0
 62
     1
  6
CONTINUOUS
 10
74.612465
 20
540.417297
 11
74.612465
 21
505.417358
  0
LINE
  8
LC-003-002-----0
 62
     1
  6
CONTINUOUS
 10
74.612465
 20
505.417328
 11
87.085274
 21
505.417328
  0
LINE
  8
LC-003-002-----0
 62
     1
  6
CONTINUOUS
 10
174.612457
 20
540.417297
 11
174.612457
 21
505.417358
  0
LINE
  8
LC-003-002-----0
 62
     1
  6
CONTINUOUS
 10
74.612465
 20
540.417297
 11
174.612457
 21
540.417297
  0
LINE
  8
LC-004-006-----0
 62
     2
  6
DASHDOT
 10
135.394012
 20
518.417297
 11
167.154388
 21
518.417297
  0
LINE
  8
LC-004-006-----0
 62
     2
  6
DASHDOT
 10
151.612457
 20
505.160614
 11
151.612457
 21
534.135681
  0
CIRCLE
  8
LC-003-002-----0
 62
     1
  6
CONTINUOUS
 10
151.612457
 20
518.417297
 40
8.000000
  0
LINE
  8
LC-003-002-----0
 62
     1
  6
CONTINUOUS
 10
209.612457
 20
540.417297
 11
209.612457
 21
505.417358
  0
LINE
  8
LC-003-002-----0
 62
     1
  6
CONTINUOUS
 10
309.612457
 20
540.417297
 11
309.612457
 21
505.417358
  0
LINE
  8
LC-003-002-----0
 62
     1
  6
CONTINUOUS
 10
156.647034
 20
512.200134
 11
159.793625
 21
508.314453
  0
LINE
  8
LC-003-002-----0
 62
     1
  6
CONTINUOUS
 10
146.577896
 20
512.200134
 11
143.431305
 21
508.314453
  0
LINE
  8
LC-003-002-----0
 62
     1
  6
CONTINUOUS
 10
162.139648
 20
505.417328
 11
174.612457
 21
505.417328
  0
ARC
  8
LC-003-002-----0
 62
     1
  6
CONTINUOUS
 10
151.612457
 20
518.417297
 40
13.000000
 50
308.999999
 51
231.000007
  0
ARC
  8
LC-003-002-----0
 62
     1
  6
CONTINUOUS
 10
151.612457
 20
518.417297
 40
11.000000
 50
308.999999
 51
231.000007
  0
LINE
  8
LC-003-002-----0
 62
     1
  6
CONTINUOUS
 10
143.431305
 20
508.314423
 11
141.085266
 21
505.417328
  0
LINE
  8
LC-003-002-----0
 62
     1
  6
CONTINUOUS
 10
159.793625
 20
508.314423
 11
162.139648
 21
505.417328
  0
LINE
  8
LC-004-006-----0
 62
     2
  6
DASHDOT
 10
113.830917
 20
518.417297
 11
82.070549
 21
518.417297
  0
LINE
  8
LC-004-006-----0
 62
     2
  6
DASHDOT
 10
97.612465
 20
505.160614
 11
97.612465
 21
534.135681
  0
CIRCLE
  8
LC-003-002-----0
 62
     1
  6
CONTINUOUS
 10
97.612465
 20
518.417297
 40
8.000000
  0
ARC
  8
LC-003-002-----0
 62
     1
  6
CONTINUOUS
 10
97.612465
 20
518.417297
 40
13.000000
 50
308.999999
 51
231.000007
  0
ARC
  8
LC-003-002-----0
 62
     1
  6
CONTINUOUS
 10
97.612465
 20
518.417297
 40
11.000000
 50
308.999999
 51
231.000007
  0
LINE
  8
LC-003-002-----0
 62
     1
  6
CONTINUOUS
 10
92.577904
 20
512.200134
 11
89.431297
 21
508.314453
  0
LINE
  8
LC-003-002-----0
 62
     1
  6
CONTINUOUS
 10
102.647026
 20
512.200134
 11
105.793633
 21
508.314453
  0
LINE
  8
LC-003-002-----0
 62
     1
  6
CONTINUOUS
 10
105.793633
 20
508.314423
 11
108.139656
 21
505.417328
  0
LINE
  8
LC-003-002-----0
 62
     1
  6
CONTINUOUS
 10
89.431297
 20
508.314423
 11
87.085274
 21
505.417328
  0
LINE
  8
LC-003-002-----0
 62
     1
  6
CONTINUOUS
 10
108.139656
 20
505.417328
 11
141.085266
 21
505.417328
  0
LINE
  8
LC-004-006-----0
 62
     2
  6
DASHDOT
 10
168.612457
 20
502.477142
 11
168.612457
 21
543.907593
  0
LINE
  8
LC-006-012-----0
 62
     2
  6
DASHED
 10
171.612457
 20
527.417297
 11
171.612457
 21
540.417297
  0
LINE
  8
LC-006-012-----0
 62
     2
  6
DASHED
 10
165.612457
 20
527.417297
 11
165.612457
 21
540.417297
  0
LINE
  8
LC-006-012-----0
 62
     2
  6
DASHED
 10
171.262466
 20
511.117340
 11
171.262466
 21
540.417297
  0
LINE
  8
LC-006-012-----0
 62
     2
  6
DASHED
 10
165.962463
 20
511.117340
 11
165.962463
 21
540.417297
  0
LINE
  8
LC-006-012-----0
 62
     2
  6
DASHED
 10
165.612457
 20
527.417297
 11
171.612457
 21
527.417297
  0
LINE
  8
LC-006-012-----0
 62
     2
  6
DASHED
 10
163.612457
 20
511.117340
 11
173.612457
 21
511.117340
  0
LINE
  8
LC-006-012-----0
 62
     2
  6
DASHED
 10
173.612457
 20
505.417328
 11
173.612457
 21
511.117340
  0
LINE
  8
LC-006-012-----0
 62
     2
  6
DASHED
 10
163.612457
 20
505.417328
 11
163.612457
 21
511.117340
  0
LINE
  8
LC-004-006-----0
 62
     2
  6
DASHDOT
 10
80.612465
 20
502.477142
 11
80.612465
 21
543.907593
  0
LINE
  8
LC-006-012-----0
 62
     2
  6
DASHED
 10
77.612465
 20
527.417297
 11
77.612465
 21
540.417297
  0
LINE
  8
LC-006-012-----0
 62
     2
  6
DASHED
 10
83.612465
 20
527.417297
 11
83.612465
 21
540.417297
  0
LINE
  8
LC-006-012-----0
 62
     2
  6
DASHED
 10
77.962463
 20
511.117340
 11
77.962463
 21
540.417297
  0
LINE
  8
LC-006-012-----0
 62
     2
  6
DASHED
 10
83.262466
 20
511.117340
 11
83.262466
 21
540.417297
  0
LINE
  8
LC-006-012-----0
 62
     2
  6
DASHED
 10
83.612465
 20
527.417297
 11
77.612465
 21
527.417297
  0
LINE
  8
LC-006-012-----0
 62
     2
  6
DASHED
 10
85.612465
 20
505.417328
 11
85.612465
 21
511.117340
  0
LINE
  8
LC-006-012-----0
 62
     2
  6
DASHED
 10
75.612465
 20
505.417328
 11
75.612465
 21
511.117340
  0
LINE
  8
LC-006-012-----0
 62
     2
  6
DASHED
 10
85.612465
 20
511.117340
 11
75.612465
 21
511.117340
  0
LINE
  8
LC-003-002-----0
 62
     1
  6
CONTINUOUS
 10
209.612457
 20
540.417297
 11
309.612457
 21
540.417297
  0
LINE
  8
LC-003-002-----0
 62
     1
  6
CONTINUOUS
 10
209.612457
 20
505.417328
 11
309.612457
 21
505.417328
  0
LINE
  8
LC-004-006-----0
 62
     2
  6
DASHDOT
 10
191.533676
 20
518.417297
 11
324.923920
 21
518.417297
  0
LINE
  8
LC-004-006-----0
 62
     2
  6
DASHDOT
 10
215.612457
 20
502.477142
 11
215.612457
 21
543.907593
  0
LINE
  8
LC-006-012-----0
 62
     2
  6
DASHED
 10
212.612457
 20
527.417297
 11
212.612457
 21
540.417297
  0
LINE
  8
LC-006-012-----0
 62
     2
  6
DASHED
 10
218.612457
 20
527.417297
 11
218.612457
 21
540.417297
  0
LINE
  8
LC-006-012-----0
 62
     2
  6
DASHED
 10
212.962463
 20
511.117340
 11
212.962463
 21
540.417297
  0
LINE
  8
LC-006-012-----0
 62
     2
  6
DASHED
 10
218.262466
 20
511.117340
 11
218.262466
 21
540.417297
  0
LINE
  8
LC-006-012-----0
 62
     2
  6
DASHED
 10
218.612457
 20
527.417297
 11
212.612457
 21
527.417297
  0
LINE
  8
LC-006-012-----0
 62
     2
  6
DASHED
 10
220.612457
 20
505.417328
 11
220.612457
 21
511.117340
  0
LINE
  8
LC-006-012-----0
 62
     2
  6
DASHED
 10
220.612457
 20
511.117340
 11
210.612457
 21
511.117340
  0
LINE
  8
LC-006-012-----0
 62
     2
  6
DASHED
 10
210.612457
 20
505.417328
 11
210.612457
 21
511.117340
  0
LINE
  8
LC-004-006-----0
 62
     2
  6
DASHDOT
 10
303.612457
 20
502.477142
 11
303.612457
 21
543.907593
  0
LINE
  8
LC-006-012-----0
 62
     2
  6
DASHED
 10
306.612457
 20
527.417297
 11
306.612457
 21
540.417297
  0
LINE
  8
LC-006-012-----0
 62
     2
  6
DASHED
 10
300.612457
 20
527.417297
 11
300.612457
 21
540.417297
  0
LINE
  8
LC-006-012-----0
 62
     2
  6
DASHED
 10
306.262451
 20
511.117340
 11
306.262451
 21
540.417297
  0
LINE
  8
LC-006-012-----0
 62
     2
  6
DASHED
 10
300.962463
 20
511.117340
 11
300.962463
 21
540.417297
  0
LINE
  8
LC-006-012-----0
 62
     2
  6
DASHED
 10
300.612457
 20
527.417297
 11
306.612457
 21
527.417297
  0
LINE
  8
LC-006-012-----0
 62
     2
  6
DASHED
 10
298.612457
 20
505.417328
 11
298.612457
 21
511.117340
  0
LINE
  8
LC-006-012-----0
 62
     2
  6
DASHED
 10
298.612457
 20
511.117340
 11
308.612457
 21
511.117340
  0
LINE
  8
LC-006-012-----0
 62
     2
  6
DASHED
 10
308.612457
 20
505.417328
 11
308.612457
 21
511.117340
  0
LINE
  8
LC-008-003-----0
 62
     2
  6
DIVIDE
 10
309.612457
 20
526.417297
 11
321.747437
 21
526.417297
  0
LINE
  8
LC-006-012-----0
 62
     2
  6
DASHED
 10
209.612457
 20
531.417297
 11
245.612457
 21
531.417297
  0
LINE
  8
LC-006-012-----0
 62
     2
  6
DASHED
 10
209.612457
 20
508.314423
 11
245.612457
 21
508.314423
  0
LINE
  8
LC-006-012-----0
 62
     2
  6
DASHED
 10
245.612457
 20
531.417297
 11
245.612457
 21
508.314453
  0
LINE
  8
LC-006-012-----0
 62
     2
  6
DASHED
 10
273.612457
 20
531.417297
 11
273.612457
 21
508.314453
  0
LINE
  8
LC-006-012-----0
 62
     2
  6
DASHED
 10
245.612457
 20
531.417297
 11
273.612457
 21
531.417297
  0
LINE
  8
LC-006-012-----0
 62
     2
  6
DASHED
 10
273.612457
 20
531.417297
 11
309.612457
 21
531.417297
  0
LINE
  8
LC-006-012-----0
 62
     2
  6
DASHED
 10
245.612457
 20
508.314423
 11
273.612457
 21
508.314423
  0
LINE
  8
LC-006-012-----0
 62
     2
  6
DASHED
 10
273.612457
 20
508.314423
 11
309.612457
 21
508.314423
  0
LINE
  8
LC-008-003-----0
 62
     2
  6
DIVIDE
 10
120.112465
 20
492.417328
 11
120.112465
 21
497.417328
  0
LINE
  8
LC-008-003-----0
 62
     2
  6
DIVIDE
 10
75.112465
 20
492.417328
 11
75.112465
 21
497.417328
  0
LINE
  8
LC-008-003-----0
 62
     2
  6
DIVIDE
 10
120.112465
 20
497.417328
 11
114.112465
 21
497.417328
  0
LINE
  8
LC-006-012-----0
 62
     2
  6
DASHED
 10
209.612457
 20
526.417297
 11
309.612457
 21
526.417297
  0
LINE
  8
LC-006-012-----0
 62
     2
  6
DASHED
 10
209.612457
 20
510.417328
 11
309.612457
 21
510.417328
  0
LINE
  8
LC-003-002-----0
 62
     1
  6
CONTINUOUS
 10
74.612465
 20
457.419739
 11
74.612465
 21
357.419739
  0
LINE
  8
LC-003-002-----0
 62
     1
  6
CONTINUOUS
 10
74.612465
 20
357.419739
 11
174.612457
 21
357.419739
  0
LINE
  8
LC-003-002-----0
 62
     1
  6
CONTINUOUS
 10
174.612457
 20
457.419739
 11
174.612457
 21
357.419739
  0
LINE
  8
LC-003-002-----0
 62
     1
  6
CONTINUOUS
 10
74.612465
 20
457.419739
 11
174.612457
 21
457.419739
  0
LINE
  8
LC-004-006-----0
 62
     2
  6
DASHDOT
 10
97.612465
 20
477.584930
 11
97.612465
 21
344.254059
  0
LINE
  8
LC-006-012-----0
 62
     2
  6
DASHED
 10
84.612465
 20
457.419739
 11
84.612465
 21
421.419739
  0
LINE
  8
LC-006-012-----0
 62
     2
  6
DASHED
 10
110.612465
 20
457.419739
 11
110.612465
 21
421.419739
  0
LINE
  8
LC-006-012-----0
 62
     2
  6
DASHED
 10
87.085274
 20
457.419739
 11
87.085274
 21
357.419739
  0
LINE
  8
LC-006-012-----0
 62
     2
  6
DASHED
 10
108.139656
 20
457.419739
 11
108.139656
 21
357.419739
  0
LINE
  8
LC-006-012-----0
 62
     2
  6
DASHED
 10
84.612465
 20
421.419739
 11
110.612465
 21
421.419739
  0
LINE
  8
LC-006-012-----0
 62
     2
  6
DASHED
 10
84.612465
 20
393.419739
 11
110.612465
 21
393.419739
  0
LINE
  8
LC-006-012-----0
 62
     2
  6
DASHED
 10
110.612465
 20
393.419739
 11
110.612465
 21
357.419739
  0
LINE
  8
LC-006-012-----0
 62
     2
  6
DASHED
 10
84.612465
 20
393.419739
 11
84.612465
 21
357.419739
  0
LINE
  8
LC-004-006-----0
 62
     2
  6
DASHDOT
 10
80.612465
 20
459.089020
 11
80.612465
 21
444.066101
  0
LINE
  8
LC-004-006-----0
 62
     2
  6
DASHDOT
 10
88.367348
 20
451.419739
 11
72.971252
 21
451.419739
  0
CIRCLE
  8
LC-003-002-----0
 62
     1
  6
CONTINUOUS
 10
80.612465
 20
451.419739
 40
2.650000
  0
ARC
  8
LC-006-012-----0
 62
     2
  6
CONTINUOUS
 10
80.612465
 20
451.419739
 40
3.000000
 50
76.759175
 51
9.730935
  0
CIRCLE
  8
LC-006-012-----0
 62
     2
  6
DASHED
 10
80.612465
 20
451.419739
 40
5.000000
  0
LINE
  8
LC-004-006-----0
 62
     2
  6
DASHDOT
 10
80.612465
 20
355.750458
 11
80.612465
 21
370.773346
  0
LINE
  8
LC-004-006-----0
 62
     2
  6
DASHDOT
 10
88.367348
 20
363.419739
 11
72.971252
 21
363.419739
  0
CIRCLE
  8
LC-003-002-----0
 62
     1
  6
CONTINUOUS
 10
80.612465
 20
363.419739
 40
2.650000
  0
ARC
  8
LC-006-012-----0
 62
     2
  6
CONTINUOUS
 10
80.612465
 20
363.419739
 40
3.000000
 50
350.269065
 51
283.240825
  0
CIRCLE
  8
LC-006-012-----0
 62
     2
  6
DASHED
 10
80.612465
 20
363.419739
 40
5.000000
  0
LINE
  8
LC-004-006-----0
 62
     2
  6
DASHDOT
 10
168.612457
 20
459.089020
 11
168.612457
 21
444.066101
  0
LINE
  8
LC-004-006-----0
 62
     2
  6
DASHDOT
 10
160.857574
 20
451.419739
 11
176.253677
 21
451.419739
  0
CIRCLE
  8
LC-003-002-----0
 62
     1
  6
CONTINUOUS
 10
168.612457
 20
451.419739
 40
2.650000
  0
ARC
  8
LC-006-012-----0
 62
     2
  6
CONTINUOUS
 10
168.612457
 20
451.419739
 40
3.000000
 50
170.269062
 51
103.240823
  0
CIRCLE
  8
LC-006-012-----0
 62
     2
  6
DASHED
 10
168.612457
 20
451.419739
 40
5.000000
  0
LINE
  8
LC-004-006-----0
 62
     2
  6
DASHDOT
 10
168.612457
 20
355.750458
 11
168.612457
 21
370.773346
  0
LINE
  8
LC-004-006-----0
 62
     2
  6
DASHDOT
 10
160.857574
 20
363.419739
 11
176.253677
 21
363.419739
  0
CIRCLE
  8
LC-003-002-----0
 62
     1
  6
CONTINUOUS
 10
168.612457
 20
363.419739
 40
2.650000
  0
ARC
  8
LC-006-012-----0
 62
     2
  6
CONTINUOUS
 10
168.612457
 20
363.419739
 40
3.000000
 50
256.759177
 51
189.730938
  0
CIRCLE
  8
LC-006-012-----0
 62
     2
  6
DASHED
 10
168.612457
 20
363.419739
 40
5.000000
  0
LINE
  8
LC-008-003-----0
 62
     2
  6
DIVIDE
 10
89.612465
 20
472.419739
 11
89.612465
 21
457.419739
  0
LINE
  8
LC-008-003-----0
 62
     2
  6
DIVIDE
 10
105.612465
 20
472.419739
 11
105.612465
 21
457.419739
  0
LINE
  8
LC-006-012-----0
 62
     2
  6
DASHED
 10
89.612465
 20
457.419739
 11
89.612465
 21
357.419739
  0
LINE
  8
LC-008-003-----0
 62
     2
  6
DIVIDE
 10
89.612465
 20
357.419739
 11
89.612465
 21
346.915527
  0
LINE
  8
LC-006-012-----0
 62
     2
  6
DASHED
 10
105.612465
 20
457.419739
 11
105.612465
 21
357.419739
  0
LINE
  8
LC-008-003-----0
 62
     2
  6
DIVIDE
 10
105.612465
 20
357.419739
 11
105.612465
 21
347.512482
  0
LINE
  8
LC-004-006-----0
 62
     2
  6
DASHDOT
 10
151.612457
 20
477.584930
 11
151.612457
 21
345.190948
  0
LINE
  8
LC-006-012-----0
 62
     2
  6
DASHED
 10
164.612457
 20
457.419739
 11
164.612457
 21
421.419739
  0
LINE
  8
LC-006-012-----0
 62
     2
  6
DASHED
 10
138.612457
 20
457.419739
 11
138.612457
 21
421.419739
  0
LINE
  8
LC-006-012-----0
 62
     2
  6
DASHED
 10
162.139648
 20
457.419739
 11
162.139648
 21
357.419739
  0
LINE
  8
LC-006-012-----0
 62
     2
  6
DASHED
 10
141.085266
 20
457.419739
 11
141.085266
 21
357.419739
  0
LINE
  8
LC-006-012-----0
 62
     2
  6
DASHED
 10
164.612457
 20
421.419739
 11
138.612457
 21
421.419739
  0
LINE
  8
LC-006-012-----0
 62
     2
  6
DASHED
 10
164.612457
 20
393.419739
 11
138.612457
 21
393.419739
  0
LINE
  8
LC-006-012-----0
 62
     2
  6
DASHED
 10
138.612457
 20
393.419739
 11
138.612457
 21
357.419739
  0
LINE
  8
LC-006-012-----0
 62
     2
  6
DASHED
 10
164.612457
 20
393.419739
 11
164.612457
 21
357.419739
  0
LINE
  8
LC-008-003-----0
 62
     2
  6
DIVIDE
 10
159.612457
 20
472.419739
 11
159.612457
 21
457.419739
  0
LINE
  8
LC-008-003-----0
 62
     2
  6
DIVIDE
 10
143.612457
 20
472.419739
 11
143.612457
 21
457.419739
  0
LINE
  8
LC-006-012-----0
 62
     2
  6
DASHED
 10
159.612457
 20
457.419739
 11
159.612457
 21
357.419739
  0
LINE
  8
LC-008-003-----0
 62
     2
  6
DIVIDE
 10
159.612457
 20
357.419739
 11
159.612457
 21
348.477692
  0
LINE
  8
LC-006-012-----0
 62
     2
  6
DASHED
 10
143.612457
 20
457.419739
 11
143.612457
 21
357.419739
  0
LINE
  8
LC-008-003-----0
 62
     2
  6
DIVIDE
 10
143.612457
 20
357.419739
 11
143.612457
 21
347.938660
  0
LINE
  8
LC-008-003-----0
 62
     2
  6
DIVIDE
 10
89.612465
 20
472.419739
 11
105.612465
 21
472.419739
  0
LINE
  8
LC-008-003-----0
 62
     2
  6
DIVIDE
 10
143.612457
 20
472.419739
 11
159.612457
 21
472.419739
  0
LINE
  8
LC-006-012-----0
 62
     2
  6
DASHED
 10
84.612465
 20
393.419739
 11
84.612465
 21
421.419739
  0
LINE
  8
LC-006-012-----0
 62
     2
  6
DASHED
 10
110.612465
 20
393.419739
 11
110.612465
 21
421.419739
  0
LINE
  8
LC-006-012-----0
 62
     2
  6
DASHED
 10
138.612457
 20
393.419739
 11
138.612457
 21
421.419739
  0
LINE
  8
LC-006-012-----0
 62
     2
  6
DASHED
 10
164.612457
 20
393.419739
 11
164.612457
 21
421.419739
  0
LINE
  8
LC-008-003-----0
 62
     2
  6
DIVIDE
 10
194.612457
 20
526.417297
 11
194.612457
 21
510.417358
  0
LINE
  8
LC-008-003-----0
 62
     2
  6
DIVIDE
 10
209.612457
 20
526.417297
 11
194.612457
 21
526.417297
  0
LINE
  8
LC-008-003-----0
 62
     2
  6
DIVIDE
 10
209.612457
 20
510.417328
 11
194.612457
 21
510.417328
  0
LINE
  8
LC-008-003-----0
 62
     2
  6
DIVIDE
 10
309.612457
 20
510.417328
 11
322.281189
 21
510.417328
  0
LINE
  8
LC-008-003-----0
 62
     2
  6
DIVIDE
 10
88.112465
 20
497.417328
 11
82.112465
 21
497.417328
  0
LINE
  8
LC-008-003-----0
 62
     2
  6
DIVIDE
 10
88.112465
 20
497.417328
 11
94.473602
 21
511.058838
  0
LINE
  8
LC-008-003-----0
 62
     2
  6
DIVIDE
 10
107.112465
 20
497.417328
 11
100.751328
 21
511.058838
  0
LINE
  8
LC-008-003-----0
 62
     2
  6
DIVIDE
 10
102.362465
 20
492.417328
 11
102.362465
 21
497.917328
  0
LINE
  8
LC-008-003-----0
 62
     2
  6
DIVIDE
 10
92.862465
 20
492.417328
 11
92.862465
 21
497.917328
  0
LINE
  8
LC-008-003-----0
 62
     2
  6
DIVIDE
 10
102.362465
 20
497.917328
 11
92.862465
 21
497.917328
  0
LINE
  8
LC-008-003-----0
 62
     2
  6
DIVIDE
 10
92.862465
 20
492.417328
 11
75.112465
 21
492.417328
  0
LINE
  8
LC-008-003-----0
 62
     2
  6
DIVIDE
 10
94.473602
 20
511.058838
 11
97.612465
 21
510.069153
  0
LINE
  8
LC-008-003-----0
 62
     2
  6
DIVIDE
 10
100.751328
 20
511.058838
 11
97.612465
 21
510.069153
  0
LINE
  8
LC-008-003-----0
 62
     2
  6
DIVIDE
 10
81.112465
 20
497.417328
 11
75.112465
 21
497.417328
  0
LINE
  8
LC-008-003-----0
 62
     2
  6
DIVIDE
 10
113.612465
 20
496.917328
 11
113.112465
 21
497.417328
  0
LINE
  8
LC-008-003-----0
 62
     2
  6
DIVIDE
 10
81.612465
 20
496.917328
 11
82.112465
 21
497.417328
  0
LINE
  8
LC-008-003-----0
 62
     2
  6
DIVIDE
 10
81.612465
 20
496.917328
 11
81.112465
 21
497.417328
  0
LINE
  8
LC-008-003-----0
 62
     2
  6
DIVIDE
 10
113.612465
 20
496.917328
 11
114.112465
 21
497.417328
  0
LINE
  8
LC-008-003-----0
 62
     2
  6
DIVIDE
 10
113.112465
 20
497.417328
 11
107.112465
 21
497.417328
  0
LINE
  8
LC-008-003-----0
 62
     2
  6
DIVIDE
 10
129.112457
 20
492.417328
 11
146.862457
 21
492.417328
  0
LINE
  8
LC-008-003-----0
 62
     2
  6
DIVIDE
 10
129.112457
 20
492.417328
 11
129.112457
 21
497.417328
  0
LINE
  8
LC-008-003-----0
 62
     2
  6
DIVIDE
 10
174.112457
 20
492.417328
 11
174.112457
 21
497.417328
  0
LINE
  8
LC-008-003-----0
 62
     2
  6
DIVIDE
 10
129.112457
 20
497.417328
 11
135.112457
 21
497.417328
  0
LINE
  8
LC-008-003-----0
 62
     2
  6
DIVIDE
 10
161.112457
 20
497.417328
 11
167.112457
 21
497.417328
  0
LINE
  8
LC-008-003-----0
 62
     2
  6
DIVIDE
 10
161.112457
 20
497.417328
 11
154.751328
 21
511.058838
  0
LINE
  8
LC-008-003-----0
 62
     2
  6
DIVIDE
 10
142.112457
 20
497.417328
 11
148.473602
 21
511.058838
  0
LINE
  8
LC-008-003-----0
 62
     2
  6
DIVIDE
 10
146.862457
 20
492.417328
 11
146.862457
 21
497.917328
  0
LINE
  8
LC-008-003-----0
 62
     2
  6
DIVIDE
 10
156.362457
 20
492.417328
 11
156.362457
 21
497.917328
  0
LINE
  8
LC-008-003-----0
 62
     2
  6
DIVIDE
 10
146.862457
 20
497.917328
 11
156.362457
 21
497.917328
  0
LINE
  8
LC-008-003-----0
 62
     2
  6
DIVIDE
 10
156.362457
 20
492.417328
 11
174.112457
 21
492.417328
  0
LINE
  8
LC-008-003-----0
 62
     2
  6
DIVIDE
 10
154.751328
 20
511.058838
 11
151.612457
 21
510.069153
  0
LINE
  8
LC-008-003-----0
 62
     2
  6
DIVIDE
 10
148.473602
 20
511.058838
 11
151.612457
 21
510.069153
  0
LINE
  8
LC-008-003-----0
 62
     2
  6
DIVIDE
 10
168.112457
 20
497.417328
 11
174.112457
 21
497.417328
  0
LINE
  8
LC-008-003-----0
 62
     2
  6
DIVIDE
 10
135.612457
 20
496.917328
 11
136.112457
 21
497.417328
  0
LINE
  8
LC-008-003-----0
 62
     2
  6
DIVIDE
 10
167.612457
 20
496.917328
 11
167.112457
 21
497.417328
  0
LINE
  8
LC-008-003-----0
 62
     2
  6
DIVIDE
 10
136.112457
 20
497.417328
 11
142.112457
 21
497.417328
  0
LINE
  8
LC-008-003-----0
 62
     2
  6
DIVIDE
 10
135.612457
 20
496.917328
 11
135.112457
 21
497.417328
  0
LINE
  8
LC-008-003-----0
 62
     2
  6
DIVIDE
 10
167.612457
 20
496.917328
 11
168.112457
 21
497.417328
  0
LINE
  8
LC-008-003-----0
 62
     2
  6
DIVIDE
 10
194.612457
 20
510.417328
 11
194.612457
 21
492.417328
  0
LINE
  8
LC-008-003-----0
 62
     2
  6
DIVIDE
 10
194.612457
 20
492.417328
 11
323.004181
 21
492.417328
  0
LINE
  8
LC-008-003-----0
 62
     2
  6
DIVIDE
 10
194.612457
 20
511.058838
 11
322.376038
 21
511.058838
  0
LINE
  8
LC-008-003-----0
 62
     2
  6
DIVIDE
 10
194.612457
 20
497.417328
 11
322.890137
 21
497.417328
  0
LINE
  8
LC-008-003-----0
 62
     2
  6
DIVIDE
 10
75.112465
 20
472.419739
 11
75.112465
 21
457.419739
  0
LINE
  8
LC-008-003-----0
 62
     2
  6
DIVIDE
 10
88.112465
 20
472.419739
 11
88.112465
 21
457.419739
  0
LINE
  8
LC-008-003-----0
 62
     2
  6
DIVIDE
 10
107.112465
 20
472.419739
 11
107.112465
 21
457.419739
  0
LINE
  8
LC-008-003-----0
 62
     2
  6
DIVIDE
 10
120.112465
 20
472.419739
 11
120.112465
 21
457.419739
  0
LINE
  8
LC-008-003-----0
 62
     2
  6
DIVIDE
 10
89.612465
 20
472.419739
 11
75.112465
 21
472.419739
  0
LINE
  8
LC-008-003-----0
 62
     2
  6
DIVIDE
 10
105.612465
 20
472.419739
 11
120.112465
 21
472.419739
  0
LINE
  8
LC-008-003-----0
 62
     2
  6
DIVIDE
 10
94.473602
 20
472.419739
 11
94.473602
 21
457.419739
  0
LINE
  8
LC-008-003-----0
 62
     2
  6
DIVIDE
 10
100.751328
 20
472.419739
 11
100.751328
 21
457.419739
  0
LINE
  8
LC-008-003-----0
 62
     2
  6
DIVIDE
 10
142.112457
 20
472.419739
 11
142.112457
 21
457.419739
  0
LINE
  8
LC-008-003-----0
 62
     2
  6
DIVIDE
 10
129.112457
 20
472.419739
 11
129.112457
 21
457.419739
  0
LINE
  8
LC-008-003-----0
 62
     2
  6
DIVIDE
 10
143.612457
 20
472.419739
 11
129.112457
 21
472.419739
  0
LINE
  8
LC-008-003-----0
 62
     2
  6
DIVIDE
 10
174.112457
 20
472.419739
 11
174.112457
 21
457.419739
  0
LINE
  8
LC-008-003-----0
 62
     2
  6
DIVIDE
 10
159.612457
 20
472.419739
 11
174.112457
 21
472.419739
  0
LINE
  8
LC-008-003-----0
 62
     2
  6
DIVIDE
 10
161.112457
 20
472.419739
 11
161.112457
 21
457.419739
  0
LINE
  8
LC-008-003-----0
 62
     2
  6
DIVIDE
 10
154.751328
 20
472.419739
 11
154.751328
 21
457.419739
  0
LINE
  8
LC-008-003-----0
 62
     2
  6
DIVIDE
 10
148.473602
 20
472.419739
 11
148.473602
 21
457.419739
  0
LINE
  8
LC-008-003-----0
 62
     2
  6
DIVIDE
 10
142.112457
 20
342.631073
 11
142.112457
 21
357.419739
  0
LINE
  8
LC-008-003-----0
 62
     2
  6
DIVIDE
 10
129.112457
 20
343.414917
 11
129.112457
 21
357.419739
  0
LINE
  8
LC-008-003-----0
 62
     2
  6
DIVIDE
 10
107.112465
 20
341.572083
 11
107.112465
 21
357.419739
  0
LINE
  8
LC-008-003-----0
 62
     2
  6
DIVIDE
 10
174.112457
 20
343.315338
 11
174.112457
 21
357.419739
  0
LINE
  8
LC-008-003-----0
 62
     2
  6
DIVIDE
 10
120.112465
 20
342.947632
 11
120.112465
 21
357.419739
  0
LINE
  8
LC-008-003-----0
 62
     2
  6
DIVIDE
 10
161.112457
 20
342.888733
 11
161.112457
 21
357.419739
  0
LINE
  8
LC-008-003-----0
 62
     2
  6
DIVIDE
 10
154.751328
 20
342.868652
 11
154.751328
 21
357.419739
  0
LINE
  8
LC-008-003-----0
 62
     2
  6
DIVIDE
 10
148.473602
 20
343.144196
 11
148.473602
 21
357.419739
  0
LINE
  8
LC-008-003-----0
 62
     2
  6
DIVIDE
 10
321.747437
 20
526.417297
 11
321.416840
 21
522.332947
  0
LINE
  8
LC-008-003-----0
 62
     2
  6
DIVIDE
 10
100.751328
 20
342.108002
 11
100.751328
 21
357.419739
  0
LINE
  8
LC-008-003-----0
 62
     2
  6
DIVIDE
 10
75.112465
 20
342.379425
 11
75.112465
 21
357.419739
  0
LINE
  8
LC-008-003-----0
 62
     2
  6
DIVIDE
 10
88.112465
 20
342.046051
 11
88.112465
 21
357.419739
  0
LINE
  8
LC-008-003-----0
 62
     2
  6
DIVIDE
 10
94.473602
 20
342.594238
 11
94.473602
 21
357.419739
  0
LINE
  8
LC-008-003-----0
 62
     2
  6
DIVIDE
 10
321.416840
 20
522.332947
 11
322.910217
 21
514.671509
  0
LINE
  8
LC-008-003-----0
 62
     2
  6
DIVIDE
 10
322.910217
 20
514.671509
 11
322.281189
 21
510.417358
  0
LINE
  8
LC-008-003-----0
 62
     2
  6
DIVIDE
 10
321.768219
 20
506.947968
 11
322.822357
 21
500.389130
  0
LINE
  8
LC-008-003-----0
 62
     2
  6
DIVIDE
 10
322.822357
 20
500.389130
 11
323.004181
 21
492.417328
  0
LINE
  8
LC-008-003-----0
 62
     2
  6
DIVIDE
 10
322.281189
 20
510.417328
 11
321.768219
 21
506.947968
  0
LINE
  8
LC-008-003-----0
 62
     2
  6
DIVIDE
 10
89.612465
 20
346.915527
 11
93.723671
 21
346.465210
  0
LINE
  8
LC-008-003-----0
 62
     2
  6
DIVIDE
 10
93.723671
 20
346.465210
 11
102.417892
 21
347.803589
  0
LINE
  8
LC-008-003-----0
 62
     2
  6
DIVIDE
 10
102.417892
 20
347.803589
 11
105.612465
 21
347.512482
  0
LINE
  8
LC-008-003-----0
 62
     2
  6
DIVIDE
 10
143.612457
 20
347.938660
 11
146.879059
 21
347.402069
  0
LINE
  8
LC-008-003-----0
 62
     2
  6
DIVIDE
 10
146.879059
 20
347.402069
 11
155.935822
 21
348.941193
  0
LINE
  8
LC-008-003-----0
 62
     2
  6
DIVIDE
 10
155.935822
 20
348.941193
 11
159.612457
 21
348.477692
  0
LINE
  8
LC-008-003-----0
 62
     2
  6
DIVIDE
 10
75.112465
 20
342.379425
 11
81.977158
 21
341.199799
  0
LINE
  8
LC-008-003-----0
 62
     2
  6
DIVIDE
 10
81.977158
 20
341.199799
 11
92.945053
 21
342.712646
  0
LINE
  8
LC-008-003-----0
 62
     2
  6
DIVIDE
 10
92.945053
 20
342.712646
 11
107.348160
 21
341.597046
  0
LINE
  8
LC-008-003-----0
 62
     2
  6
DIVIDE
 10
107.348160
 20
341.597046
 11
120.112465
 21
342.947632
  0
LINE
  8
LC-008-003-----0
 62
     2
  6
DIVIDE
 10
129.112457
 20
343.414917
 11
138.306580
 21
342.232635
  0
LINE
  8
LC-008-003-----0
 62
     2
  6
DIVIDE
 10
138.306580
 20
342.232635
 11
147.445114
 21
343.189331
  0
LINE
  8
LC-008-003-----0
 62
     2
  6
DIVIDE
 10
147.445114
 20
343.189331
 11
158.305389
 21
342.712646
  0
LINE
  8
LC-008-003-----0
 62
     2
  6
DIVIDE
 10
158.305389
 20
342.712646
 11
169.703705
 21
343.427704
  0
LINE
  8
LC-008-003-----0
 62
     2
  6
DIVIDE
 10
169.703705
 20
343.427704
 11
174.112457
 21
343.315338
  0
ENDSEC
  0
EOF
