  0
SECTION
  2
HEADER
  9
$LIMMIN
 10
73.313499
 20
32.570148
  9
$LIMMAX
 10
390.514160
 20
278.765106
  9
$EXTMIN
 10
73.313499
 20
32.570148
  9
$EXTMAX
 10
390.514160
 20
278.765106
  0
ENDSEC
  0
SECTION
  2
TABLES
  0
TABLE
  2
LTYPE
 70
     4
  0
LTYPE
  2
CONTINUOUS
 70
    64
  3
Ausgezogene Linie
 72
    65
 73
     0
 40
0.0
  0
LTYPE
  2
DASHED
 70
    64
  3
__ __ __ __ __ __ __ __ __ __ __ __ __ __ __
 72
    65
 73
     2
 40
0.75
 49
0.5
 49
-0.25
  0
LTYPE
  2
DASHDOT
 70
    64
  3
__ . __ . __ . __ . __ . __ . __ . __ . __ . __
 72
    65
 73
     4
 40
1.0
 49
0.5
 49
-0.25
 49
0.0
 49
-0.25
  0
LTYPE
  2
DIVIDE
 70
    64
  3
__ . . __ . . __ . . __ . . __ . . __ . . __
 72
    65
 73
     6
 40
1.25
 49
0.5
 49
-0.25
 49
0.0
 49
-0.25
 49
0.0
 49
-0.25
  0
ENDTAB
  0
TABLE
  2
LAYER
 70
     4
  0
LAYER
  2
LC-003-002-----0
 70
    64
 62
     7
  6
CONTINUOUS
  0
LAYER
  2
LC-004-006-----0
 70
    64
 62
     7
  6
CONTINUOUS
  0
LAYER
  2
LC-006-012-----0
 70
    64
 62
     7
  6
CONTINUOUS
  0
LAYER
  2
LC-008-003-----0
 70
    64
 62
     7
  6
CONTINUOUS
  0
ENDTAB
  0
TABLE
  2
STYLE
 70
     1
  0
STYLE
  2
TXT8
 70
    64
 40
0.0
 41
1.0
 50
0.0
 71
     0
 42
3.500000
  3
TXT8
  4

  0
ENDTAB
  0
ENDSEC
  0
SECTION
  2
BLOCKS
  0
ENDSEC
  0
SECTION
  2
ENTITIES
  0
LINE
  8
LC-003-002-----0
 62
     1
  6
CONTINUOUS
 10
74.612465
 20
274.141663
 11
74.612465
 21
232.141693
  0
LINE
  8
LC-003-002-----0
 62
     1
  6
CONTINUOUS
 10
74.612465
 20
274.141663
 11
204.612457
 21
274.141663
  0
LINE
  8
LC-003-002-----0
 62
     1
  6
CONTINUOUS
 10
74.612465
 20
232.141678
 11
93.797508
 21
232.141678
  0
LINE
  8
LC-003-002-----0
 62
     1
  6
CONTINUOUS
 10
74.612465
 20
182.144241
 11
74.612465
 21
52.144234
  0
LINE
  8
LC-003-002-----0
 62
     1
  6
CONTINUOUS
 10
74.612465
 20
52.144238
 11
204.612457
 21
52.144238
  0
LINE
  8
LC-003-002-----0
 62
     1
  6
CONTINUOUS
 10
204.612457
 20
182.144241
 11
204.612457
 21
52.144234
  0
LINE
  8
LC-003-002-----0
 62
     1
  6
CONTINUOUS
 10
204.612457
 20
274.141663
 11
204.612457
 21
232.141693
  0
LINE
  8
LC-004-006-----0
 62
     2
  6
DASHDOT
 10
175.612457
 20
232.141678
 11
175.612457
 21
268.589630
  0
LINE
  8
LC-004-006-----0
 62
     2
  6
DASHDOT
 10
156.174072
 20
249.141678
 11
195.347443
 21
249.141678
  0
CIRCLE
  8
LC-003-002-----0
 62
     1
  6
CONTINUOUS
 10
175.612457
 20
249.141678
 40
10.000000
  0
LINE
  8
LC-003-002-----0
 62
     1
  6
CONTINUOUS
 10
244.614212
 20
274.141663
 11
374.614227
 21
274.141663
  0
LINE
  8
LC-003-002-----0
 62
     1
  6
CONTINUOUS
 10
374.614227
 20
274.141663
 11
374.614227
 21
232.141693
  0
LINE
  8
LC-003-002-----0
 62
     1
  6
CONTINUOUS
 10
170.612457
 20
240.481415
 11
167.612457
 21
235.285263
  0
LINE
  8
LC-003-002-----0
 62
     1
  6
CONTINUOUS
 10
167.612457
 20
235.285263
 11
165.797516
 21
232.141678
  0
LINE
  8
LC-003-002-----0
 62
     1
  6
CONTINUOUS
 10
185.427414
 20
232.141678
 11
204.612457
 21
232.141678
  0
LINE
  8
LC-003-002-----0
 62
     1
  6
CONTINUOUS
 10
183.612457
 20
235.285263
 11
185.427414
 21
232.141678
  0
LINE
  8
LC-003-002-----0
 62
     1
  6
CONTINUOUS
 10
180.612457
 20
240.481415
 11
183.612457
 21
235.285263
  0
LINE
  8
LC-003-002-----0
 62
     1
  6
CONTINUOUS
 10
74.612465
 20
182.144241
 11
204.612457
 21
182.144241
  0
LINE
  8
LC-004-006-----0
 62
     2
  6
DASHDOT
 10
103.612465
 20
232.141678
 11
103.612465
 21
268.589630
  0
LINE
  8
LC-004-006-----0
 62
     2
  6
DASHDOT
 10
123.050850
 20
249.141678
 11
83.877487
 21
249.141678
  0
CIRCLE
  8
LC-003-002-----0
 62
     1
  6
CONTINUOUS
 10
103.612465
 20
249.141678
 40
10.000000
  0
LINE
  8
LC-003-002-----0
 62
     1
  6
CONTINUOUS
 10
244.614212
 20
232.141678
 11
374.614227
 21
232.141678
  0
LINE
  8
LC-003-002-----0
 62
     1
  6
CONTINUOUS
 10
244.614212
 20
274.141663
 11
244.614212
 21
232.141693
  0
LINE
  8
LC-003-002-----0
 62
     1
  6
CONTINUOUS
 10
108.612465
 20
240.481415
 11
111.612465
 21
235.285263
  0
LINE
  8
LC-003-002-----0
 62
     1
  6
CONTINUOUS
 10
98.612465
 20
240.481415
 11
95.612465
 21
235.285263
  0
LINE
  8
LC-006-012-----0
 62
     2
  6
DASHED
 10
248.114212
 20
256.141663
 11
248.114212
 21
274.141663
  0
LINE
  8
LC-006-012-----0
 62
     2
  6
DASHED
 10
256.114227
 20
256.141663
 11
256.114227
 21
274.141663
  0
LINE
  8
LC-003-002-----0
 62
     1
  6
CONTINUOUS
 10
113.427422
 20
232.141678
 11
165.797516
 21
232.141678
  0
LINE
  8
LC-004-006-----0
 62
     2
  6
DASHDOT
 10
197.112457
 20
229.837143
 11
197.112457
 21
278.765106
  0
LINE
  8
LC-006-012-----0
 62
     2
  6
DASHED
 10
201.112457
 20
256.141663
 11
201.112457
 21
274.141663
  0
LINE
  8
LC-006-012-----0
 62
     2
  6
DASHED
 10
193.112457
 20
256.141663
 11
193.112457
 21
274.141663
  0
LINE
  8
LC-006-012-----0
 62
     2
  6
DASHED
 10
200.312469
 20
238.941681
 11
200.312469
 21
274.141663
  0
LINE
  8
LC-006-012-----0
 62
     2
  6
DASHED
 10
193.912460
 20
238.941681
 11
193.912460
 21
274.141663
  0
LINE
  8
LC-006-012-----0
 62
     2
  6
DASHED
 10
193.112457
 20
256.141663
 11
201.112457
 21
256.141663
  0
LINE
  8
LC-006-012-----0
 62
     2
  6
DASHED
 10
202.612457
 20
232.141678
 11
202.612457
 21
238.941681
  0
LINE
  8
LC-006-012-----0
 62
     2
  6
DASHED
 10
191.612457
 20
232.141678
 11
191.612457
 21
238.941681
  0
LINE
  8
LC-006-012-----0
 62
     2
  6
DASHED
 10
191.612457
 20
238.941681
 11
202.612457
 21
238.941681
  0
LINE
  8
LC-004-006-----0
 62
     2
  6
DASHDOT
 10
82.112465
 20
229.837143
 11
82.112465
 21
278.765106
  0
LINE
  8
LC-006-012-----0
 62
     2
  6
DASHED
 10
78.112465
 20
256.141663
 11
78.112465
 21
274.141663
  0
LINE
  8
LC-006-012-----0
 62
     2
  6
DASHED
 10
86.112465
 20
256.141663
 11
86.112465
 21
274.141663
  0
LINE
  8
LC-006-012-----0
 62
     2
  6
DASHED
 10
78.912460
 20
238.941681
 11
78.912460
 21
274.141663
  0
LINE
  8
LC-006-012-----0
 62
     2
  6
DASHED
 10
85.312462
 20
238.941681
 11
85.312462
 21
274.141663
  0
LINE
  8
LC-006-012-----0
 62
     2
  6
DASHED
 10
86.112465
 20
256.141663
 11
78.112465
 21
256.141663
  0
LINE
  8
LC-006-012-----0
 62
     2
  6
DASHED
 10
87.612465
 20
232.141678
 11
87.612465
 21
238.941681
  0
LINE
  8
LC-006-012-----0
 62
     2
  6
DASHED
 10
76.612465
 20
232.141678
 11
76.612465
 21
238.941681
  0
LINE
  8
LC-006-012-----0
 62
     2
  6
DASHED
 10
87.612465
 20
238.941681
 11
76.612465
 21
238.941681
  0
LINE
  8
LC-008-003-----0
 62
     2
  6
DIVIDE
 10
129.612457
 20
217.141678
 11
109.112473
 21
217.141678
  0
LINE
  8
LC-008-003-----0
 62
     2
  6
DIVIDE
 10
129.612457
 20
223.141678
 11
123.362473
 21
223.141678
  0
LINE
  8
LC-008-003-----0
 62
     2
  6
DIVIDE
 10
129.612457
 20
217.141678
 11
129.612457
 21
223.141678
  0
LINE
  8
LC-008-003-----0
 62
     2
  6
DIVIDE
 10
77.612465
 20
217.141678
 11
77.612465
 21
223.141678
  0
LINE
  8
LC-008-003-----0
 62
     2
  6
DIVIDE
 10
91.612465
 20
223.141678
 11
85.362465
 21
223.141678
  0
LINE
  8
LC-008-003-----0
 62
     2
  6
DIVIDE
 10
91.612465
 20
223.141678
 11
99.488403
 21
240.031677
  0
LINE
  8
LC-008-003-----0
 62
     2
  6
DIVIDE
 10
115.612465
 20
223.141678
 11
107.736526
 21
240.031677
  0
ARC
  8
LC-003-002-----0
 62
     1
  6
CONTINUOUS
 10
103.612465
 20
249.141678
 40
16.000000
 50
299.999998
 51
239.999997
  0
ARC
  8
LC-003-002-----0
 62
     1
  6
CONTINUOUS
 10
103.612465
 20
249.141678
 40
14.000000
 50
299.999998
 51
239.999997
  0
LINE
  8
LC-003-002-----0
 62
     1
  6
CONTINUOUS
 10
95.612465
 20
235.285263
 11
93.797508
 21
232.141678
  0
LINE
  8
LC-006-012-----0
 62
     2
  6
DASHED
 10
248.914215
 20
238.941681
 11
248.914215
 21
274.141663
  0
LINE
  8
LC-003-002-----0
 62
     1
  6
CONTINUOUS
 10
111.612465
 20
235.285263
 11
113.427422
 21
232.141678
  0
LINE
  8
LC-006-012-----0
 62
     2
  6
DASHED
 10
255.314224
 20
238.941681
 11
255.314224
 21
274.141663
  0
ARC
  8
LC-003-002-----0
 62
     1
  6
CONTINUOUS
 10
175.612457
 20
249.141678
 40
16.000000
 50
299.999998
 51
239.999997
  0
ARC
  8
LC-003-002-----0
 62
     1
  6
CONTINUOUS
 10
175.612457
 20
249.141678
 40
14.000000
 50
299.999998
 51
239.999997
  0
LINE
  8
LC-008-003-----0
 62
     2
  6
DIVIDE
 10
83.862465
 20
223.141678
 11
77.612465
 21
223.141678
  0
LINE
  8
LC-008-003-----0
 62
     2
  6
DIVIDE
 10
99.488403
 20
240.031677
 11
103.612465
 21
238.731369
  0
LINE
  8
LC-008-003-----0
 62
     2
  6
DIVIDE
 10
84.612465
 20
222.391678
 11
85.362465
 21
223.141678
  0
LINE
  8
LC-008-003-----0
 62
     2
  6
DIVIDE
 10
84.612465
 20
222.391678
 11
83.862465
 21
223.141678
  0
LINE
  8
LC-008-003-----0
 62
     2
  6
DIVIDE
 10
107.736526
 20
240.031677
 11
103.612465
 21
238.731369
  0
LINE
  8
LC-008-003-----0
 62
     2
  6
DIVIDE
 10
109.112465
 20
223.641678
 11
98.112465
 21
223.641678
  0
LINE
  8
LC-008-003-----0
 62
     2
  6
DIVIDE
 10
109.112465
 20
217.141678
 11
109.112465
 21
223.641678
  0
LINE
  8
LC-008-003-----0
 62
     2
  6
DIVIDE
 10
98.112465
 20
217.141678
 11
98.112465
 21
223.641678
  0
LINE
  8
LC-008-003-----0
 62
     2
  6
DIVIDE
 10
98.112465
 20
217.141678
 11
77.612465
 21
217.141678
  0
LINE
  8
LC-008-003-----0
 62
     2
  6
DIVIDE
 10
122.612465
 20
222.391678
 11
121.862465
 21
223.141678
  0
LINE
  8
LC-008-003-----0
 62
     2
  6
DIVIDE
 10
122.612465
 20
222.391678
 11
123.362465
 21
223.141678
  0
LINE
  8
LC-008-003-----0
 62
     2
  6
DIVIDE
 10
121.862465
 20
223.141678
 11
115.612465
 21
223.141678
  0
LINE
  8
LC-008-003-----0
 62
     2
  6
DIVIDE
 10
149.612457
 20
217.141678
 11
170.112457
 21
217.141678
  0
LINE
  8
LC-008-003-----0
 62
     2
  6
DIVIDE
 10
149.612457
 20
223.141678
 11
155.862457
 21
223.141678
  0
LINE
  8
LC-008-003-----0
 62
     2
  6
DIVIDE
 10
149.612457
 20
217.141678
 11
149.612457
 21
223.141678
  0
LINE
  8
LC-008-003-----0
 62
     2
  6
DIVIDE
 10
201.612457
 20
217.141678
 11
201.612457
 21
223.141678
  0
LINE
  8
LC-008-003-----0
 62
     2
  6
DIVIDE
 10
187.612457
 20
223.141678
 11
193.862457
 21
223.141678
  0
LINE
  8
LC-008-003-----0
 62
     2
  6
DIVIDE
 10
187.612457
 20
223.141678
 11
179.736526
 21
240.031677
  0
LINE
  8
LC-008-003-----0
 62
     2
  6
DIVIDE
 10
163.612457
 20
223.141678
 11
171.488403
 21
240.031677
  0
LINE
  8
LC-008-003-----0
 62
     2
  6
DIVIDE
 10
195.362457
 20
223.141678
 11
201.612457
 21
223.141678
  0
LINE
  8
LC-008-003-----0
 62
     2
  6
DIVIDE
 10
179.736526
 20
240.031677
 11
175.612457
 21
238.731369
  0
LINE
  8
LC-008-003-----0
 62
     2
  6
DIVIDE
 10
194.612457
 20
222.391678
 11
193.862457
 21
223.141678
  0
LINE
  8
LC-008-003-----0
 62
     2
  6
DIVIDE
 10
194.612457
 20
222.391678
 11
195.362457
 21
223.141678
  0
LINE
  8
LC-008-003-----0
 62
     2
  6
DIVIDE
 10
171.488403
 20
240.031677
 11
175.612457
 21
238.731369
  0
LINE
  8
LC-008-003-----0
 62
     2
  6
DIVIDE
 10
170.112457
 20
223.641678
 11
181.112457
 21
223.641678
  0
LINE
  8
LC-008-003-----0
 62
     2
  6
DIVIDE
 10
170.112457
 20
217.141678
 11
170.112457
 21
223.641678
  0
LINE
  8
LC-008-003-----0
 62
     2
  6
DIVIDE
 10
181.112457
 20
217.141678
 11
181.112457
 21
223.641678
  0
LINE
  8
LC-008-003-----0
 62
     2
  6
DIVIDE
 10
181.112457
 20
217.141678
 11
201.612457
 21
217.141678
  0
LINE
  8
LC-008-003-----0
 62
     2
  6
DIVIDE
 10
156.612457
 20
222.391678
 11
157.362457
 21
223.141678
  0
LINE
  8
LC-008-003-----0
 62
     2
  6
DIVIDE
 10
156.612457
 20
222.391678
 11
155.862457
 21
223.141678
  0
LINE
  8
LC-008-003-----0
 62
     2
  6
DIVIDE
 10
157.362457
 20
223.141678
 11
163.612457
 21
223.141678
  0
LINE
  8
LC-004-006-----0
 62
     2
  6
DASHDOT
 10
90.264580
 20
174.644241
 11
73.313499
 21
174.644241
  0
LINE
  8
LC-004-006-----0
 62
     2
  6
DASHDOT
 10
82.112465
 20
166.592072
 11
82.112465
 21
183.272522
  0
CIRCLE
  8
LC-003-002-----0
 62
     1
  6
CONTINUOUS
 10
82.112465
 20
174.644241
 40
3.200000
  0
ARC
  8
LC-006-012-----0
 62
     2
  6
CONTINUOUS
 10
82.112465
 20
174.644241
 40
4.000000
 50
79.940199
 51
9.069693
  0
CIRCLE
  8
LC-006-012-----0
 62
     2
  6
DASHED
 10
82.112465
 20
174.644241
 40
5.500000
  0
LINE
  8
LC-004-006-----0
 62
     2
  6
DASHDOT
 10
90.264580
 20
59.644238
 11
73.313499
 21
59.644238
  0
LINE
  8
LC-004-006-----0
 62
     2
  6
DASHDOT
 10
82.112465
 20
67.696404
 11
82.112465
 21
51.015949
  0
CIRCLE
  8
LC-003-002-----0
 62
     1
  6
CONTINUOUS
 10
82.112465
 20
59.644238
 40
3.200000
  0
ARC
  8
LC-006-012-----0
 62
     2
  6
CONTINUOUS
 10
82.112465
 20
59.644238
 40
4.000000
 50
350.930307
 51
280.059801
  0
CIRCLE
  8
LC-006-012-----0
 62
     2
  6
DASHED
 10
82.112465
 20
59.644238
 40
5.500000
  0
LINE
  8
LC-004-006-----0
 62
     2
  6
DASHDOT
 10
188.960342
 20
174.644241
 11
205.911423
 21
174.644241
  0
LINE
  8
LC-004-006-----0
 62
     2
  6
DASHDOT
 10
197.112457
 20
166.592072
 11
197.112457
 21
183.272522
  0
CIRCLE
  8
LC-003-002-----0
 62
     1
  6
CONTINUOUS
 10
197.112457
 20
174.644241
 40
3.200000
  0
ARC
  8
LC-006-012-----0
 62
     2
  6
CONTINUOUS
 10
197.112457
 20
174.644241
 40
4.000000
 50
170.930306
 51
100.059806
  0
CIRCLE
  8
LC-006-012-----0
 62
     2
  6
DASHED
 10
197.112457
 20
174.644241
 40
5.500000
  0
LINE
  8
LC-004-006-----0
 62
     2
  6
DASHDOT
 10
188.960342
 20
59.644238
 11
205.911423
 21
59.644238
  0
LINE
  8
LC-004-006-----0
 62
     2
  6
DASHDOT
 10
197.112457
 20
67.696404
 11
197.112457
 21
51.015949
  0
CIRCLE
  8
LC-003-002-----0
 62
     1
  6
CONTINUOUS
 10
197.112457
 20
59.644238
 40
3.200000
  0
ARC
  8
LC-006-012-----0
 62
     2
  6
CONTINUOUS
 10
197.112457
 20
59.644238
 40
4.000000
 50
259.940194
 51
189.069694
  0
CIRCLE
  8
LC-006-012-----0
 62
     2
  6
DASHED
 10
197.112457
 20
59.644238
 40
5.500000
  0
LINE
  8
LC-006-012-----0
 62
     2
  6
DASHED
 10
93.797508
 20
182.144241
 11
93.797508
 21
52.144234
  0
LINE
  8
LC-006-012-----0
 62
     2
  6
DASHED
 10
113.427422
 20
182.144241
 11
113.427422
 21
52.144234
  0
LINE
  8
LC-006-012-----0
 62
     2
  6
DASHED
 10
87.612465
 20
182.144241
 11
87.612465
 21
137.144241
  0
LINE
  8
LC-006-012-----0
 62
     2
  6
DASHED
 10
119.612465
 20
182.144241
 11
119.612465
 21
137.144241
  0
LINE
  8
LC-006-012-----0
 62
     2
  6
DASHED
 10
87.612465
 20
137.144241
 11
119.612465
 21
137.144241
  0
LINE
  8
LC-006-012-----0
 62
     2
  6
DASHED
 10
87.612465
 20
97.144234
 11
119.612465
 21
97.144234
  0
LINE
  8
LC-006-012-----0
 62
     2
  6
DASHED
 10
87.612465
 20
137.144241
 11
87.612465
 21
97.144226
  0
LINE
  8
LC-006-012-----0
 62
     2
  6
DASHED
 10
87.612465
 20
97.144234
 11
87.612465
 21
52.144241
  0
LINE
  8
LC-006-012-----0
 62
     2
  6
DASHED
 10
119.612465
 20
137.144241
 11
119.612465
 21
97.144226
  0
LINE
  8
LC-006-012-----0
 62
     2
  6
DASHED
 10
119.612465
 20
97.144234
 11
119.612465
 21
52.144241
  0
LINE
  8
LC-004-006-----0
 62
     2
  6
DASHDOT
 10
103.612465
 20
199.923660
 11
103.612465
 21
38.531273
  0
LINE
  8
LC-006-012-----0
 62
     2
  6
DASHED
 10
113.612465
 20
182.144241
 11
113.612465
 21
52.144234
  0
LINE
  8
LC-006-012-----0
 62
     2
  6
DASHED
 10
93.612465
 20
182.144241
 11
93.612465
 21
52.144234
  0
LINE
  8
LC-006-012-----0
 62
     2
  6
DASHED
 10
185.427414
 20
182.144241
 11
185.427414
 21
52.144234
  0
LINE
  8
LC-006-012-----0
 62
     2
  6
DASHED
 10
165.797516
 20
182.144241
 11
165.797516
 21
52.144234
  0
LINE
  8
LC-006-012-----0
 62
     2
  6
DASHED
 10
191.612457
 20
182.144241
 11
191.612457
 21
137.144241
  0
LINE
  8
LC-006-012-----0
 62
     2
  6
DASHED
 10
159.612457
 20
182.144241
 11
159.612457
 21
137.144241
  0
LINE
  8
LC-006-012-----0
 62
     2
  6
DASHED
 10
191.612457
 20
137.144241
 11
159.612457
 21
137.144241
  0
LINE
  8
LC-006-012-----0
 62
     2
  6
DASHED
 10
191.612457
 20
97.144234
 11
159.612457
 21
97.144234
  0
LINE
  8
LC-006-012-----0
 62
     2
  6
DASHED
 10
191.612457
 20
137.144241
 11
191.612457
 21
97.144226
  0
LINE
  8
LC-006-012-----0
 62
     2
  6
DASHED
 10
191.612457
 20
97.144234
 11
191.612457
 21
52.144241
  0
LINE
  8
LC-006-012-----0
 62
     2
  6
DASHED
 10
159.612457
 20
137.144241
 11
159.612457
 21
97.144226
  0
LINE
  8
LC-006-012-----0
 62
     2
  6
DASHED
 10
159.612457
 20
97.144234
 11
159.612457
 21
52.144241
  0
LINE
  8
LC-004-006-----0
 62
     2
  6
DASHDOT
 10
175.612457
 20
199.923660
 11
175.612457
 21
38.531273
  0
LINE
  8
LC-006-012-----0
 62
     2
  6
DASHED
 10
165.612457
 20
182.144241
 11
165.612457
 21
52.144234
  0
LINE
  8
LC-006-012-----0
 62
     2
  6
DASHED
 10
185.612457
 20
182.144241
 11
185.612457
 21
52.144234
  0
LINE
  8
LC-008-003-----0
 62
     2
  6
DIVIDE
 10
93.612465
 20
197.144241
 11
113.612465
 21
197.144241
  0
LINE
  8
LC-008-003-----0
 62
     2
  6
DIVIDE
 10
93.612465
 20
182.144241
 11
93.612465
 21
197.144241
  0
LINE
  8
LC-008-003-----0
 62
     2
  6
DIVIDE
 10
113.612465
 20
182.144241
 11
113.612465
 21
197.144241
  0
LINE
  8
LC-008-003-----0
 62
     2
  6
DIVIDE
 10
77.612465
 20
197.144241
 11
77.612465
 21
182.144241
  0
LINE
  8
LC-008-003-----0
 62
     2
  6
DIVIDE
 10
91.612465
 20
197.144241
 11
91.612465
 21
182.144241
  0
LINE
  8
LC-008-003-----0
 62
     2
  6
DIVIDE
 10
99.488403
 20
197.144241
 11
99.488403
 21
182.144241
  0
LINE
  8
LC-008-003-----0
 62
     2
  6
DIVIDE
 10
107.736526
 20
197.144241
 11
107.736526
 21
182.144241
  0
LINE
  8
LC-008-003-----0
 62
     2
  6
DIVIDE
 10
115.612465
 20
197.144241
 11
115.612465
 21
182.144241
  0
LINE
  8
LC-008-003-----0
 62
     2
  6
DIVIDE
 10
129.612457
 20
197.144241
 11
129.612457
 21
182.144241
  0
LINE
  8
LC-008-003-----0
 62
     2
  6
DIVIDE
 10
93.612465
 20
197.144241
 11
77.612465
 21
197.144241
  0
LINE
  8
LC-008-003-----0
 62
     2
  6
DIVIDE
 10
113.612465
 20
197.144241
 11
129.612457
 21
197.144241
  0
LINE
  8
LC-008-003-----0
 62
     2
  6
DIVIDE
 10
165.612457
 20
197.144241
 11
185.612457
 21
197.144241
  0
LINE
  8
LC-008-003-----0
 62
     2
  6
DIVIDE
 10
165.612457
 20
182.144241
 11
165.612457
 21
197.144241
  0
LINE
  8
LC-008-003-----0
 62
     2
  6
DIVIDE
 10
185.612457
 20
182.144241
 11
185.612457
 21
197.144241
  0
LINE
  8
LC-008-003-----0
 62
     2
  6
DIVIDE
 10
149.612457
 20
197.144241
 11
149.612457
 21
182.144241
  0
LINE
  8
LC-008-003-----0
 62
     2
  6
DIVIDE
 10
163.612457
 20
197.144241
 11
163.612457
 21
182.144241
  0
LINE
  8
LC-008-003-----0
 62
     2
  6
DIVIDE
 10
171.488403
 20
197.144241
 11
171.488403
 21
182.144241
  0
LINE
  8
LC-008-003-----0
 62
     2
  6
DIVIDE
 10
179.736526
 20
197.144241
 11
179.736526
 21
182.144241
  0
LINE
  8
LC-008-003-----0
 62
     2
  6
DIVIDE
 10
187.612457
 20
197.144241
 11
187.612457
 21
182.144241
  0
LINE
  8
LC-008-003-----0
 62
     2
  6
DIVIDE
 10
201.612457
 20
197.144241
 11
201.612457
 21
182.144241
  0
LINE
  8
LC-008-003-----0
 62
     2
  6
DIVIDE
 10
165.612457
 20
197.144241
 11
149.612457
 21
197.144241
  0
LINE
  8
LC-008-003-----0
 62
     2
  6
DIVIDE
 10
185.612457
 20
197.144241
 11
201.612457
 21
197.144241
  0
LINE
  8
LC-008-003-----0
 62
     2
  6
DIVIDE
 10
77.612465
 20
33.480335
 11
77.612465
 21
52.144238
  0
LINE
  8
LC-008-003-----0
 62
     2
  6
DIVIDE
 10
91.612465
 20
33.563728
 11
91.612465
 21
52.144238
  0
LINE
  8
LC-008-003-----0
 62
     2
  6
DIVIDE
 10
99.488403
 20
33.097282
 11
99.488403
 21
52.144238
  0
LINE
  8
LC-008-003-----0
 62
     2
  6
DIVIDE
 10
107.736526
 20
33.984627
 11
107.736526
 21
52.144238
  0
LINE
  8
LC-008-003-----0
 62
     2
  6
DIVIDE
 10
115.612465
 20
33.511120
 11
115.612465
 21
52.144238
  0
LINE
  8
LC-008-003-----0
 62
     2
  6
DIVIDE
 10
129.612457
 20
33.358418
 11
129.612457
 21
52.144238
  0
LINE
  8
LC-008-003-----0
 62
     2
  6
DIVIDE
 10
93.612465
 20
40.072926
 11
98.351753
 21
41.160385
  0
LINE
  8
LC-008-003-----0
 62
     2
  6
DIVIDE
 10
98.351753
 20
41.160385
 11
105.613037
 21
40.048908
  0
LINE
  8
LC-006-012-----0
 62
     2
  6
DASHED
 10
256.114227
 20
256.141663
 11
248.114197
 21
256.141663
  0
LINE
  8
LC-008-003-----0
 62
     2
  6
DIVIDE
 10
105.613037
 20
40.048908
 11
113.612465
 21
41.019054
  0
LINE
  8
LC-008-003-----0
 62
     2
  6
DIVIDE
 10
93.612465
 20
52.144238
 11
93.612465
 21
40.072926
  0
LINE
  8
LC-008-003-----0
 62
     2
  6
DIVIDE
 10
113.612465
 20
52.144238
 11
113.612465
 21
41.019054
  0
LINE
  8
LC-006-012-----0
 62
     2
  6
DASHED
 10
257.614227
 20
232.141678
 11
257.614227
 21
238.941681
  0
LINE
  8
LC-008-003-----0
 62
     2
  6
DIVIDE
 10
77.612465
 20
33.480335
 11
83.975128
 21
34.498817
  0
LINE
  8
LC-008-003-----0
 62
     2
  6
DIVIDE
 10
83.975128
 20
34.498817
 11
97.323982
 21
32.864433
  0
LINE
  8
LC-008-003-----0
 62
     2
  6
DIVIDE
 10
97.323982
 20
32.864433
 11
109.803185
 21
34.206963
  0
LINE
  8
LC-008-003-----0
 62
     2
  6
DIVIDE
 10
109.803185
 20
34.206963
 11
123.468269
 21
32.570148
  0
LINE
  8
LC-008-003-----0
 62
     2
  6
DIVIDE
 10
123.468269
 20
32.570148
 11
129.612457
 21
33.358418
  0
LINE
  8
LC-008-003-----0
 62
     2
  6
DIVIDE
 10
201.612457
 20
33.480335
 11
201.612457
 21
52.144238
  0
LINE
  8
LC-008-003-----0
 62
     2
  6
DIVIDE
 10
187.612457
 20
33.563728
 11
187.612457
 21
52.144238
  0
LINE
  8
LC-008-003-----0
 62
     2
  6
DIVIDE
 10
179.736526
 20
33.097282
 11
179.736526
 21
52.144238
  0
LINE
  8
LC-008-003-----0
 62
     2
  6
DIVIDE
 10
171.488403
 20
33.984627
 11
171.488403
 21
52.144238
  0
LINE
  8
LC-008-003-----0
 62
     2
  6
DIVIDE
 10
163.612457
 20
33.511120
 11
163.612457
 21
52.144238
  0
LINE
  8
LC-008-003-----0
 62
     2
  6
DIVIDE
 10
149.612457
 20
33.358418
 11
149.612457
 21
52.144238
  0
LINE
  8
LC-008-003-----0
 62
     2
  6
DIVIDE
 10
185.612457
 20
40.072926
 11
180.873184
 21
41.160385
  0
LINE
  8
LC-008-003-----0
 62
     2
  6
DIVIDE
 10
180.873184
 20
41.160385
 11
173.611893
 21
40.048908
  0
LINE
  8
LC-008-003-----0
 62
     2
  6
DIVIDE
 10
173.611893
 20
40.048908
 11
165.612457
 21
41.019054
  0
LINE
  8
LC-008-003-----0
 62
     2
  6
DIVIDE
 10
185.612457
 20
52.144238
 11
185.612457
 21
40.072926
  0
LINE
  8
LC-008-003-----0
 62
     2
  6
DIVIDE
 10
165.612457
 20
52.144238
 11
165.612457
 21
41.019054
  0
LINE
  8
LC-008-003-----0
 62
     2
  6
DIVIDE
 10
201.612457
 20
33.480335
 11
195.249802
 21
34.498817
  0
LINE
  8
LC-008-003-----0
 62
     2
  6
DIVIDE
 10
195.249802
 20
34.498817
 11
181.900955
 21
32.864433
  0
LINE
  8
LC-008-003-----0
 62
     2
  6
DIVIDE
 10
181.900955
 20
32.864433
 11
169.421753
 21
34.206963
  0
LINE
  8
LC-008-003-----0
 62
     2
  6
DIVIDE
 10
169.421753
 20
34.206963
 11
155.756653
 21
32.570148
  0
LINE
  8
LC-008-003-----0
 62
     2
  6
DIVIDE
 10
155.756653
 20
32.570148
 11
149.612457
 21
33.358418
  0
LINE
  8
LC-006-012-----0
 62
     2
  6
DASHED
 10
246.614212
 20
232.141678
 11
246.614212
 21
238.941681
  0
LINE
  8
LC-006-012-----0
 62
     2
  6
DASHED
 10
257.614227
 20
238.941681
 11
246.614197
 21
238.941681
  0
LINE
  8
LC-004-006-----0
 62
     2
  6
DASHDOT
 10
252.114212
 20
229.837143
 11
252.114212
 21
278.765106
  0
LINE
  8
LC-006-012-----0
 62
     2
  6
DASHED
 10
371.114227
 20
256.141663
 11
371.114227
 21
274.141663
  0
LINE
  8
LC-006-012-----0
 62
     2
  6
DASHED
 10
363.114227
 20
256.141663
 11
363.114227
 21
274.141663
  0
LINE
  8
LC-006-012-----0
 62
     2
  6
DASHED
 10
370.314209
 20
238.941681
 11
370.314209
 21
274.141663
  0
LINE
  8
LC-006-012-----0
 62
     2
  6
DASHED
 10
363.914215
 20
238.941681
 11
363.914215
 21
274.141663
  0
LINE
  8
LC-006-012-----0
 62
     2
  6
DASHED
 10
363.114227
 20
256.141663
 11
371.114227
 21
256.141663
  0
LINE
  8
LC-006-012-----0
 62
     2
  6
DASHED
 10
361.614227
 20
232.141678
 11
361.614227
 21
238.941681
  0
LINE
  8
LC-006-012-----0
 62
     2
  6
DASHED
 10
372.614227
 20
232.141678
 11
372.614227
 21
238.941681
  0
LINE
  8
LC-006-012-----0
 62
     2
  6
DASHED
 10
361.614227
 20
238.941681
 11
372.614227
 21
238.941681
  0
LINE
  8
LC-004-006-----0
 62
     2
  6
DASHDOT
 10
367.114227
 20
229.837143
 11
367.114227
 21
278.765106
  0
LINE
  8
LC-004-006-----0
 62
     2
  6
DASHDOT
 10
219.831818
 20
249.141678
 11
390.514160
 21
249.141678
  0
LINE
  8
LC-006-012-----0
 62
     2
  6
DASHED
 10
244.614212
 20
265.141663
 11
289.614227
 21
265.141663
  0
LINE
  8
LC-006-012-----0
 62
     2
  6
DASHED
 10
244.614212
 20
235.285263
 11
289.614227
 21
235.285263
  0
LINE
  8
LC-006-012-----0
 62
     2
  6
DASHED
 10
289.614227
 20
265.141663
 11
289.614227
 21
235.285278
  0
LINE
  8
LC-006-012-----0
 62
     2
  6
DASHED
 10
329.614227
 20
265.141663
 11
329.614227
 21
235.285278
  0
LINE
  8
LC-006-012-----0
 62
     2
  6
DASHED
 10
289.614227
 20
265.141663
 11
329.614227
 21
265.141663
  0
LINE
  8
LC-006-012-----0
 62
     2
  6
DASHED
 10
329.614227
 20
265.141663
 11
374.614227
 21
265.141663
  0
LINE
  8
LC-006-012-----0
 62
     2
  6
DASHED
 10
289.614227
 20
235.285263
 11
329.614227
 21
235.285263
  0
LINE
  8
LC-006-012-----0
 62
     2
  6
DASHED
 10
329.614227
 20
235.285263
 11
374.614227
 21
235.285263
  0
LINE
  8
LC-008-003-----0
 62
     2
  6
DIVIDE
 10
224.614212
 20
259.141663
 11
244.614212
 21
259.141663
  0
LINE
  8
LC-008-003-----0
 62
     2
  6
DIVIDE
 10
388.221863
 20
240.031677
 11
374.614227
 21
240.031677
  0
LINE
  8
LC-008-003-----0
 62
     2
  6
DIVIDE
 10
224.614212
 20
239.141678
 11
244.614212
 21
239.141678
  0
LINE
  8
LC-008-003-----0
 62
     2
  6
DIVIDE
 10
224.614212
 20
217.141678
 11
387.777832
 21
217.141678
  0
LINE
  8
LC-008-003-----0
 62
     2
  6
DIVIDE
 10
224.614212
 20
223.141678
 11
387.460022
 21
223.141678
  0
LINE
  8
LC-008-003-----0
 62
     2
  6
DIVIDE
 10
224.614212
 20
240.031677
 11
244.614212
 21
240.031677
  0
LINE
  8
LC-006-012-----0
 62
     2
  6
DASHED
 10
244.614212
 20
259.141663
 11
374.614227
 21
259.141663
  0
LINE
  8
LC-006-012-----0
 62
     2
  6
DASHED
 10
244.614212
 20
239.141678
 11
374.614227
 21
239.141678
  0
LINE
  8
LC-008-003-----0
 62
     2
  6
DIVIDE
 10
224.614212
 20
259.141663
 11
224.614212
 21
239.141693
  0
LINE
  8
LC-008-003-----0
 62
     2
  6
DIVIDE
 10
224.614212
 20
239.141678
 11
224.614212
 21
217.141678
  0
LINE
  8
LC-008-003-----0
 62
     2
  6
DIVIDE
 10
387.641998
 20
259.141663
 11
388.663818
 21
253.924118
  0
LINE
  8
LC-008-003-----0
 62
     2
  6
DIVIDE
 10
388.663818
 20
253.924103
 11
387.750549
 21
244.334686
  0
LINE
  8
LC-008-003-----0
 62
     2
  6
DIVIDE
 10
387.750549
 20
244.334686
 11
388.319366
 21
239.141678
  0
LINE
  8
LC-008-003-----0
 62
     2
  6
DIVIDE
 10
389.031952
 20
232.635986
 11
387.106323
 21
221.005249
  0
LINE
  8
LC-008-003-----0
 62
     2
  6
DIVIDE
 10
387.106323
 20
221.005249
 11
387.777832
 21
217.141678
  0
LINE
  8
LC-008-003-----0
 62
     2
  6
DIVIDE
 10
388.319366
 20
239.141678
 11
389.031952
 21
232.635986
  0
LINE
  8
LC-008-003-----0
 62
     2
  6
DIVIDE
 10
374.614227
 20
259.141663
 11
387.641998
 21
259.141663
  0
LINE
  8
LC-008-003-----0
 62
     2
  6
DIVIDE
 10
374.614227
 20
239.141678
 11
388.319366
 21
239.141678
  0
ENDSEC
  0
EOF
