  0
SECTION
  2
HEADER
  9
$LIMMIN
 10
532.798828
 20
494.299835
  9
$LIMMAX
 10
908.963013
 20
785.125732
  9
$EXTMIN
 10
532.798828
 20
494.299835
  9
$EXTMAX
 10
908.963013
 20
785.125732
  0
ENDSEC
  0
SECTION
  2
TABLES
  0
TABLE
  2
LTYPE
 70
     4
  0
LTYPE
  2
CONTINUOUS
 70
    64
  3
Ausgezogene Linie
 72
    65
 73
     0
 40
0.0
  0
LTYPE
  2
DASHED
 70
    64
  3
__ __ __ __ __ __ __ __ __ __ __ __ __ __ __
 72
    65
 73
     2
 40
0.75
 49
0.5
 49
-0.25
  0
LTYPE
  2
DASHDOT
 70
    64
  3
__ . __ . __ . __ . __ . __ . __ . __ . __ . __
 72
    65
 73
     4
 40
1.0
 49
0.5
 49
-0.25
 49
0.0
 49
-0.25
  0
LTYPE
  2
DIVIDE
 70
    64
  3
__ . . __ . . __ . . __ . . __ . . __ . . __
 72
    65
 73
     6
 40
1.25
 49
0.5
 49
-0.25
 49
0.0
 49
-0.25
 49
0.0
 49
-0.25
  0
ENDTAB
  0
TABLE
  2
LAYER
 70
     4
  0
LAYER
  2
LC-003-002-----0
 70
    64
 62
     7
  6
CONTINUOUS
  0
LAYER
  2
LC-004-006-----0
 70
    64
 62
     7
  6
CONTINUOUS
  0
LAYER
  2
LC-006-012-----0
 70
    64
 62
     7
  6
CONTINUOUS
  0
LAYER
  2
LC-008-003-----0
 70
    64
 62
     7
  6
CONTINUOUS
  0
ENDTAB
  0
TABLE
  2
STYLE
 70
     1
  0
STYLE
  2
TXT8
 70
    64
 40
0.0
 41
1.0
 50
0.0
 71
     0
 42
3.500000
  3
TXT8
  4

  0
ENDTAB
  0
ENDSEC
  0
SECTION
  2
BLOCKS
  0
ENDSEC
  0
SECTION
  2
ENTITIES
  0
LINE
  8
LC-003-002-----0
 62
     1
  6
CONTINUOUS
 10
534.830261
 20
781.140137
 11
694.830261
 21
781.140137
  0
LINE
  8
LC-003-002-----0
 62
     1
  6
CONTINUOUS
 10
534.830261
 20
781.140137
 11
534.830261
 21
730.140137
  0
LINE
  8
LC-003-002-----0
 62
     1
  6
CONTINUOUS
 10
694.830261
 20
781.140137
 11
694.830261
 21
730.140137
  0
LINE
  8
LC-003-002-----0
 62
     1
  6
CONTINUOUS
 10
534.830261
 20
730.140137
 11
558.705933
 21
730.140137
  0
LINE
  8
LC-004-006-----0
 62
     2
  6
DASHDOT
 10
658.830261
 20
730.140137
 11
658.830261
 21
775.337769
  0
LINE
  8
LC-004-006-----0
 62
     2
  6
DASHDOT
 10
635.320007
 20
751.140137
 11
682.634888
 21
751.140137
  0
CIRCLE
  8
LC-003-002-----0
 62
     1
  6
CONTINUOUS
 10
658.830261
 20
751.140137
 40
12.500000
  0
ARC
  8
LC-003-002-----0
 62
     1
  6
CONTINUOUS
 10
658.830261
 20
751.140137
 40
20.000000
 50
299.999998
 51
239.999997
  0
ARC
  8
LC-003-002-----0
 62
     1
  6
CONTINUOUS
 10
658.830261
 20
751.140137
 40
17.000000
 50
299.999998
 51
239.999997
  0
LINE
  8
LC-003-002-----0
 62
     1
  6
CONTINUOUS
 10
665.080261
 20
740.314819
 11
668.830261
 21
733.819641
  0
LINE
  8
LC-003-002-----0
 62
     1
  6
CONTINUOUS
 10
652.580261
 20
740.314819
 11
648.830261
 21
733.819641
  0
LINE
  8
LC-003-002-----0
 62
     1
  6
CONTINUOUS
 10
670.954590
 20
730.140137
 11
694.830261
 21
730.140137
  0
LINE
  8
LC-003-002-----0
 62
     1
  6
CONTINUOUS
 10
648.830261
 20
733.819641
 11
646.705933
 21
730.140137
  0
LINE
  8
LC-003-002-----0
 62
     1
  6
CONTINUOUS
 10
668.830261
 20
733.819641
 11
670.954590
 21
730.140137
  0
LINE
  8
LC-004-006-----0
 62
     2
  6
DASHDOT
 10
684.830261
 20
725.675232
 11
684.830261
 21
785.125732
  0
LINE
  8
LC-006-012-----0
 62
     2
  6
DASHED
 10
689.830261
 20
759.140137
 11
689.830261
 21
781.140137
  0
LINE
  8
LC-006-012-----0
 62
     2
  6
DASHED
 10
679.830261
 20
759.140137
 11
679.830261
 21
781.140137
  0
LINE
  8
LC-006-012-----0
 62
     2
  6
DASHED
 10
688.930237
 20
739.140137
 11
688.930237
 21
781.140137
  0
LINE
  8
LC-006-012-----0
 62
     2
  6
DASHED
 10
680.730286
 20
739.140137
 11
680.730286
 21
781.140137
  0
LINE
  8
LC-006-012-----0
 62
     2
  6
DASHED
 10
679.830261
 20
759.140137
 11
689.830261
 21
759.140137
  0
LINE
  8
LC-006-012-----0
 62
     2
  6
DASHED
 10
677.330261
 20
739.140137
 11
692.330261
 21
739.140137
  0
LINE
  8
LC-006-012-----0
 62
     2
  6
DASHED
 10
692.330261
 20
730.140137
 11
692.330261
 21
739.140137
  0
LINE
  8
LC-006-012-----0
 62
     2
  6
DASHED
 10
677.330261
 20
730.140137
 11
677.330261
 21
739.140137
  0
LINE
  8
LC-004-006-----0
 62
     2
  6
DASHDOT
 10
570.830261
 20
730.140137
 11
570.830261
 21
775.337769
  0
LINE
  8
LC-004-006-----0
 62
     2
  6
DASHDOT
 10
594.340515
 20
751.140137
 11
547.025635
 21
751.140137
  0
CIRCLE
  8
LC-003-002-----0
 62
     1
  6
CONTINUOUS
 10
570.830261
 20
751.140137
 40
12.500000
  0
ARC
  8
LC-003-002-----0
 62
     1
  6
CONTINUOUS
 10
570.830261
 20
751.140137
 40
20.000000
 50
299.999998
 51
239.999997
  0
ARC
  8
LC-003-002-----0
 62
     1
  6
CONTINUOUS
 10
570.830261
 20
751.140137
 40
17.000000
 50
299.999998
 51
239.999997
  0
LINE
  8
LC-003-002-----0
 62
     1
  6
CONTINUOUS
 10
564.580261
 20
740.314819
 11
560.830261
 21
733.819641
  0
LINE
  8
LC-003-002-----0
 62
     1
  6
CONTINUOUS
 10
577.080261
 20
740.314819
 11
580.830261
 21
733.819641
  0
LINE
  8
LC-003-002-----0
 62
     1
  6
CONTINUOUS
 10
580.830261
 20
733.819641
 11
582.954590
 21
730.140137
  0
LINE
  8
LC-003-002-----0
 62
     1
  6
CONTINUOUS
 10
560.830261
 20
733.819641
 11
558.705933
 21
730.140137
  0
LINE
  8
LC-004-006-----0
 62
     2
  6
DASHDOT
 10
544.830261
 20
725.675232
 11
544.830261
 21
785.125732
  0
LINE
  8
LC-006-012-----0
 62
     2
  6
DASHED
 10
539.830261
 20
759.140137
 11
539.830261
 21
781.140137
  0
LINE
  8
LC-006-012-----0
 62
     2
  6
DASHED
 10
549.830261
 20
759.140137
 11
549.830261
 21
781.140137
  0
LINE
  8
LC-006-012-----0
 62
     2
  6
DASHED
 10
540.730286
 20
739.140137
 11
540.730286
 21
781.140137
  0
LINE
  8
LC-006-012-----0
 62
     2
  6
DASHED
 10
548.930237
 20
739.140137
 11
548.930237
 21
781.140137
  0
LINE
  8
LC-006-012-----0
 62
     2
  6
DASHED
 10
549.830261
 20
759.140137
 11
539.830261
 21
759.140137
  0
LINE
  8
LC-006-012-----0
 62
     2
  6
DASHED
 10
552.330261
 20
739.140137
 11
537.330261
 21
739.140137
  0
LINE
  8
LC-006-012-----0
 62
     2
  6
DASHED
 10
537.330261
 20
730.140137
 11
537.330261
 21
739.140137
  0
LINE
  8
LC-006-012-----0
 62
     2
  6
DASHED
 10
552.330261
 20
730.140137
 11
552.330261
 21
739.140137
  0
LINE
  8
LC-003-002-----0
 62
     1
  6
CONTINUOUS
 10
582.954590
 20
730.140137
 11
646.705933
 21
730.140137
  0
LINE
  8
LC-008-003-----0
 62
     2
  6
DIVIDE
 10
599.330261
 20
715.140137
 11
577.830261
 21
715.140137
  0
LINE
  8
LC-008-003-----0
 62
     2
  6
DIVIDE
 10
599.330261
 20
715.140137
 11
599.330261
 21
721.140137
  0
LINE
  8
LC-008-003-----0
 62
     2
  6
DIVIDE
 10
542.330261
 20
715.140137
 11
542.330261
 21
721.140137
  0
LINE
  8
LC-008-003-----0
 62
     2
  6
DIVIDE
 10
599.330261
 20
721.140137
 11
592.580261
 21
721.140137
  0
LINE
  8
LC-008-003-----0
 62
     2
  6
DIVIDE
 10
577.830261
 20
715.140137
 11
577.830261
 21
723.640137
  0
LINE
  8
LC-008-003-----0
 62
     2
  6
DIVIDE
 10
557.330261
 20
721.140137
 11
550.580261
 21
721.140137
  0
LINE
  8
LC-008-003-----0
 62
     2
  6
DIVIDE
 10
557.330261
 20
721.140137
 11
565.952698
 21
739.631042
  0
LINE
  8
LC-008-003-----0
 62
     2
  6
DIVIDE
 10
565.952698
 20
739.631042
 11
570.830261
 21
738.093140
  0
LINE
  8
LC-008-003-----0
 62
     2
  6
DIVIDE
 10
575.707825
 20
739.631042
 11
570.830261
 21
738.093140
  0
LINE
  8
LC-008-003-----0
 62
     2
  6
DIVIDE
 10
584.330261
 20
721.140137
 11
575.707825
 21
739.631042
  0
LINE
  8
LC-008-003-----0
 62
     2
  6
DIVIDE
 10
549.080261
 20
721.140137
 11
542.330261
 21
721.140137
  0
LINE
  8
LC-008-003-----0
 62
     2
  6
DIVIDE
 10
563.830261
 20
715.140137
 11
563.830261
 21
723.640137
  0
LINE
  8
LC-008-003-----0
 62
     2
  6
DIVIDE
 10
577.830261
 20
723.640137
 11
563.830261
 21
723.640137
  0
LINE
  8
LC-008-003-----0
 62
     2
  6
DIVIDE
 10
563.830261
 20
715.140137
 11
542.330261
 21
715.140137
  0
LINE
  8
LC-008-003-----0
 62
     2
  6
DIVIDE
 10
591.830261
 20
720.390137
 11
591.080261
 21
721.140137
  0
LINE
  8
LC-008-003-----0
 62
     2
  6
DIVIDE
 10
549.830261
 20
720.390137
 11
550.580261
 21
721.140137
  0
LINE
  8
LC-008-003-----0
 62
     2
  6
DIVIDE
 10
549.830261
 20
720.390137
 11
549.080261
 21
721.140137
  0
LINE
  8
LC-008-003-----0
 62
     2
  6
DIVIDE
 10
591.830261
 20
720.390137
 11
592.580261
 21
721.140137
  0
LINE
  8
LC-008-003-----0
 62
     2
  6
DIVIDE
 10
591.080261
 20
721.140137
 11
584.330261
 21
721.140137
  0
LINE
  8
LC-008-003-----0
 62
     2
  6
DIVIDE
 10
630.330261
 20
715.140137
 11
651.830261
 21
715.140137
  0
LINE
  8
LC-008-003-----0
 62
     2
  6
DIVIDE
 10
630.330261
 20
715.140137
 11
630.330261
 21
721.140137
  0
LINE
  8
LC-008-003-----0
 62
     2
  6
DIVIDE
 10
687.330261
 20
715.140137
 11
687.330261
 21
721.140137
  0
LINE
  8
LC-008-003-----0
 62
     2
  6
DIVIDE
 10
630.330261
 20
721.140137
 11
637.080261
 21
721.140137
  0
LINE
  8
LC-008-003-----0
 62
     2
  6
DIVIDE
 10
651.830261
 20
715.140137
 11
651.830261
 21
723.640137
  0
LINE
  8
LC-008-003-----0
 62
     2
  6
DIVIDE
 10
672.330261
 20
721.140137
 11
679.080261
 21
721.140137
  0
LINE
  8
LC-008-003-----0
 62
     2
  6
DIVIDE
 10
672.330261
 20
721.140137
 11
663.707825
 21
739.631042
  0
LINE
  8
LC-008-003-----0
 62
     2
  6
DIVIDE
 10
663.707825
 20
739.631042
 11
658.830261
 21
738.093140
  0
LINE
  8
LC-008-003-----0
 62
     2
  6
DIVIDE
 10
653.952698
 20
739.631042
 11
658.830261
 21
738.093140
  0
LINE
  8
LC-008-003-----0
 62
     2
  6
DIVIDE
 10
645.330261
 20
721.140137
 11
653.952698
 21
739.631042
  0
LINE
  8
LC-008-003-----0
 62
     2
  6
DIVIDE
 10
680.580261
 20
721.140137
 11
687.330261
 21
721.140137
  0
LINE
  8
LC-008-003-----0
 62
     2
  6
DIVIDE
 10
665.830261
 20
715.140137
 11
665.830261
 21
723.640137
  0
LINE
  8
LC-008-003-----0
 62
     2
  6
DIVIDE
 10
651.830261
 20
723.640137
 11
665.830261
 21
723.640137
  0
LINE
  8
LC-008-003-----0
 62
     2
  6
DIVIDE
 10
665.830261
 20
715.140137
 11
687.330261
 21
715.140137
  0
LINE
  8
LC-008-003-----0
 62
     2
  6
DIVIDE
 10
637.830261
 20
720.390137
 11
638.580261
 21
721.140137
  0
LINE
  8
LC-008-003-----0
 62
     2
  6
DIVIDE
 10
679.830261
 20
720.390137
 11
679.080261
 21
721.140137
  0
LINE
  8
LC-008-003-----0
 62
     2
  6
DIVIDE
 10
679.830261
 20
720.390137
 11
680.580261
 21
721.140137
  0
LINE
  8
LC-008-003-----0
 62
     2
  6
DIVIDE
 10
637.830261
 20
720.390137
 11
637.080261
 21
721.140137
  0
LINE
  8
LC-008-003-----0
 62
     2
  6
DIVIDE
 10
638.580261
 20
721.140137
 11
645.330261
 21
721.140137
  0
LINE
  8
LC-003-002-----0
 62
     1
  6
CONTINUOUS
 10
534.830261
 20
680.136230
 11
534.830261
 21
520.136230
  0
LINE
  8
LC-003-002-----0
 62
     1
  6
CONTINUOUS
 10
534.830261
 20
520.136230
 11
694.830261
 21
520.136230
  0
LINE
  8
LC-003-002-----0
 62
     1
  6
CONTINUOUS
 10
694.830261
 20
680.136230
 11
694.830261
 21
520.136230
  0
LINE
  8
LC-003-002-----0
 62
     1
  6
CONTINUOUS
 10
534.830261
 20
680.136230
 11
694.830261
 21
680.136230
  0
LINE
  8
LC-004-006-----0
 62
     2
  6
DASHDOT
 10
544.830261
 20
681.913086
 11
544.830261
 21
659.468750
  0
LINE
  8
LC-004-006-----0
 62
     2
  6
DASHDOT
 10
555.705322
 20
670.136230
 11
532.798828
 21
670.136230
  0
CIRCLE
  8
LC-003-002-----0
 62
     1
  6
CONTINUOUS
 10
544.830261
 20
670.136230
 40
4.100000
  0
ARC
  8
LC-006-012-----0
 62
     2
  6
CONTINUOUS
 10
544.830261
 20
670.136230
 40
5.000000
 50
76.511233
 51
12.951713
  0
CIRCLE
  8
LC-006-012-----0
 62
     2
  6
DASHED
 10
544.830261
 20
670.136230
 40
7.500000
  0
LINE
  8
LC-004-006-----0
 62
     2
  6
DASHDOT
 10
544.830261
 20
518.359375
 11
544.830261
 21
540.803711
  0
LINE
  8
LC-004-006-----0
 62
     2
  6
DASHDOT
 10
555.705322
 20
530.136230
 11
532.798828
 21
530.136230
  0
CIRCLE
  8
LC-003-002-----0
 62
     1
  6
CONTINUOUS
 10
544.830261
 20
530.136230
 40
4.100000
  0
ARC
  8
LC-006-012-----0
 62
     2
  6
CONTINUOUS
 10
544.830261
 20
530.136230
 40
5.000000
 50
347.048287
 51
283.488767
  0
CIRCLE
  8
LC-006-012-----0
 62
     2
  6
DASHED
 10
544.830261
 20
530.136230
 40
7.500000
  0
LINE
  8
LC-004-006-----0
 62
     2
  6
DASHDOT
 10
684.830261
 20
681.913086
 11
684.830261
 21
659.468750
  0
LINE
  8
LC-004-006-----0
 62
     2
  6
DASHDOT
 10
673.955200
 20
670.136230
 11
696.861694
 21
670.136230
  0
CIRCLE
  8
LC-003-002-----0
 62
     1
  6
CONTINUOUS
 10
684.830261
 20
670.136230
 40
4.100000
  0
ARC
  8
LC-006-012-----0
 62
     2
  6
CONTINUOUS
 10
684.830261
 20
670.136230
 40
5.000000
 50
167.048286
 51
103.488766
  0
CIRCLE
  8
LC-006-012-----0
 62
     2
  6
DASHED
 10
684.830261
 20
670.136230
 40
7.500000
  0
LINE
  8
LC-004-006-----0
 62
     2
  6
DASHDOT
 10
684.830261
 20
518.359375
 11
684.830261
 21
540.803711
  0
LINE
  8
LC-004-006-----0
 62
     2
  6
DASHDOT
 10
673.955200
 20
530.136230
 11
696.861694
 21
530.136230
  0
CIRCLE
  8
LC-003-002-----0
 62
     1
  6
CONTINUOUS
 10
684.830261
 20
530.136230
 40
4.100000
  0
ARC
  8
LC-006-012-----0
 62
     2
  6
CONTINUOUS
 10
684.830261
 20
530.136230
 40
5.000000
 50
256.511234
 51
192.951714
  0
CIRCLE
  8
LC-006-012-----0
 62
     2
  6
DASHED
 10
684.830261
 20
530.136230
 40
7.500000
  0
LINE
  8
LC-003-002-----0
 62
     1
  6
CONTINUOUS
 10
729.829285
 20
781.140137
 11
889.829285
 21
781.140137
  0
LINE
  8
LC-006-012-----0
 62
     2
  6
DASHED
 10
550.830261
 20
680.136230
 11
550.830261
 21
622.136230
  0
LINE
  8
LC-006-012-----0
 62
     2
  6
DASHED
 10
590.830261
 20
680.136230
 11
590.830261
 21
622.136230
  0
LINE
  8
LC-006-012-----0
 62
     2
  6
DASHED
 10
558.705933
 20
680.136230
 11
558.705933
 21
520.136230
  0
LINE
  8
LC-006-012-----0
 62
     2
  6
DASHED
 10
582.954590
 20
680.136230
 11
582.954590
 21
520.136230
  0
LINE
  8
LC-006-012-----0
 62
     2
  6
DASHED
 10
550.830261
 20
578.136230
 11
590.830261
 21
578.136230
  0
LINE
  8
LC-003-002-----0
 62
     1
  6
CONTINUOUS
 10
889.829285
 20
781.140137
 11
889.829285
 21
730.140137
  0
LINE
  8
LC-006-012-----0
 62
     2
  6
DASHED
 10
550.830261
 20
622.136230
 11
590.830261
 21
622.136230
  0
LINE
  8
LC-006-012-----0
 62
     2
  6
DASHED
 10
550.830261
 20
622.136230
 11
550.830261
 21
578.136230
  0
LINE
  8
LC-006-012-----0
 62
     2
  6
DASHED
 10
550.830261
 20
578.136230
 11
550.830261
 21
520.136230
  0
LINE
  8
LC-006-012-----0
 62
     2
  6
DASHED
 10
590.830261
 20
622.136230
 11
590.830261
 21
578.136230
  0
LINE
  8
LC-006-012-----0
 62
     2
  6
DASHED
 10
590.830261
 20
578.136230
 11
590.830261
 21
520.136230
  0
LINE
  8
LC-004-006-----0
 62
     2
  6
DASHDOT
 10
570.830261
 20
700.322510
 11
570.830261
 21
499.353699
  0
LINE
  8
LC-008-003-----0
 62
     2
  6
DIVIDE
 10
558.330261
 20
695.136230
 11
583.330261
 21
695.136230
  0
LINE
  8
LC-008-003-----0
 62
     2
  6
DIVIDE
 10
558.330261
 20
695.136230
 11
558.330261
 21
680.136230
  0
LINE
  8
LC-008-003-----0
 62
     2
  6
DIVIDE
 10
583.330261
 20
695.136230
 11
583.330261
 21
680.136230
  0
LINE
  8
LC-006-012-----0
 62
     2
  6
DASHED
 10
558.330261
 20
680.136230
 11
558.330261
 21
520.136230
  0
LINE
  8
LC-006-012-----0
 62
     2
  6
DASHED
 10
583.330261
 20
680.136230
 11
583.330261
 21
520.136230
  0
LINE
  8
LC-008-003-----0
 62
     2
  6
DIVIDE
 10
558.330261
 20
503.003754
 11
564.169006
 21
503.888611
  0
LINE
  8
LC-008-003-----0
 62
     2
  6
DIVIDE
 10
564.169006
 20
503.888611
 11
577.260925
 21
502.045197
  0
LINE
  8
LC-008-003-----0
 62
     2
  6
DIVIDE
 10
577.260925
 20
502.045197
 11
583.330261
 21
502.717804
  0
LINE
  8
LC-008-003-----0
 62
     2
  6
DIVIDE
 10
558.330261
 20
520.136230
 11
558.330261
 21
503.003754
  0
LINE
  8
LC-008-003-----0
 62
     2
  6
DIVIDE
 10
583.330261
 20
520.136230
 11
583.330261
 21
502.717804
  0
LINE
  8
LC-008-003-----0
 62
     2
  6
DIVIDE
 10
542.330261
 20
695.136230
 11
542.330261
 21
680.136230
  0
LINE
  8
LC-008-003-----0
 62
     2
  6
DIVIDE
 10
542.330261
 20
695.136230
 11
558.330261
 21
695.136230
  0
LINE
  8
LC-008-003-----0
 62
     2
  6
DIVIDE
 10
583.330261
 20
695.136230
 11
599.330261
 21
695.136230
  0
LINE
  8
LC-008-003-----0
 62
     2
  6
DIVIDE
 10
599.330261
 20
695.136230
 11
599.330261
 21
680.136230
  0
LINE
  8
LC-008-003-----0
 62
     2
  6
DIVIDE
 10
584.330261
 20
695.136230
 11
584.330261
 21
680.136230
  0
LINE
  8
LC-008-003-----0
 62
     2
  6
DIVIDE
 10
557.330261
 20
695.136230
 11
557.330261
 21
680.136230
  0
LINE
  8
LC-008-003-----0
 62
     2
  6
DIVIDE
 10
565.952698
 20
695.136230
 11
565.952698
 21
680.136230
  0
LINE
  8
LC-008-003-----0
 62
     2
  6
DIVIDE
 10
575.707825
 20
695.136230
 11
575.707825
 21
680.136230
  0
LINE
  8
LC-008-003-----0
 62
     2
  6
DIVIDE
 10
542.330261
 20
495.303223
 11
542.330261
 21
520.136230
  0
LINE
  8
LC-008-003-----0
 62
     2
  6
DIVIDE
 10
542.330261
 20
495.303223
 11
548.084961
 21
494.299835
  0
LINE
  8
LC-008-003-----0
 62
     2
  6
DIVIDE
 10
548.084961
 20
494.299835
 11
557.166504
 21
495.723236
  0
LINE
  8
LC-008-003-----0
 62
     2
  6
DIVIDE
 10
599.330261
 20
495.005280
 11
599.330261
 21
520.136230
  0
LINE
  8
LC-008-003-----0
 62
     2
  6
DIVIDE
 10
584.330261
 20
495.751495
 11
584.330261
 21
520.136230
  0
LINE
  8
LC-008-003-----0
 62
     2
  6
DIVIDE
 10
575.707825
 20
495.988892
 11
575.707825
 21
520.136230
  0
LINE
  8
LC-008-003-----0
 62
     2
  6
DIVIDE
 10
565.952698
 20
494.813171
 11
565.952698
 21
520.136230
  0
LINE
  8
LC-008-003-----0
 62
     2
  6
DIVIDE
 10
557.330261
 20
495.706268
 11
557.330261
 21
520.136230
  0
LINE
  8
LC-008-003-----0
 62
     2
  6
DIVIDE
 10
557.166504
 20
495.723236
 11
566.982483
 21
494.706512
  0
LINE
  8
LC-008-003-----0
 62
     2
  6
DIVIDE
 10
566.982483
 20
494.706512
 11
579.453735
 21
496.539398
  0
LINE
  8
LC-008-003-----0
 62
     2
  6
DIVIDE
 10
579.453735
 20
496.539398
 11
592.475769
 21
494.435394
  0
LINE
  8
LC-008-003-----0
 62
     2
  6
DIVIDE
 10
592.475769
 20
494.435394
 11
599.330261
 21
495.005280
  0
LINE
  8
LC-006-012-----0
 62
     2
  6
DASHED
 10
678.830261
 20
680.136230
 11
678.830261
 21
622.136230
  0
LINE
  8
LC-006-012-----0
 62
     2
  6
DASHED
 10
638.830261
 20
680.136230
 11
638.830261
 21
622.136230
  0
LINE
  8
LC-006-012-----0
 62
     2
  6
DASHED
 10
670.954590
 20
680.136230
 11
670.954590
 21
520.136230
  0
LINE
  8
LC-006-012-----0
 62
     2
  6
DASHED
 10
646.705933
 20
680.136230
 11
646.705933
 21
520.136230
  0
LINE
  8
LC-006-012-----0
 62
     2
  6
DASHED
 10
678.830261
 20
578.136230
 11
638.830261
 21
578.136230
  0
LINE
  8
LC-006-012-----0
 62
     2
  6
DASHED
 10
678.830261
 20
622.136230
 11
638.830261
 21
622.136230
  0
LINE
  8
LC-006-012-----0
 62
     2
  6
DASHED
 10
678.830261
 20
622.136230
 11
678.830261
 21
578.136230
  0
LINE
  8
LC-006-012-----0
 62
     2
  6
DASHED
 10
678.830261
 20
578.136230
 11
678.830261
 21
520.136230
  0
LINE
  8
LC-006-012-----0
 62
     2
  6
DASHED
 10
638.830261
 20
622.136230
 11
638.830261
 21
578.136230
  0
LINE
  8
LC-006-012-----0
 62
     2
  6
DASHED
 10
638.830261
 20
578.136230
 11
638.830261
 21
520.136230
  0
LINE
  8
LC-004-006-----0
 62
     2
  6
DASHDOT
 10
658.830261
 20
700.322510
 11
658.830261
 21
499.353699
  0
LINE
  8
LC-006-012-----0
 62
     2
  6
DASHED
 10
671.330261
 20
680.136230
 11
671.330261
 21
520.136230
  0
LINE
  8
LC-006-012-----0
 62
     2
  6
DASHED
 10
646.330261
 20
680.136230
 11
646.330261
 21
520.136230
  0
LINE
  8
LC-008-003-----0
 62
     2
  6
DIVIDE
 10
671.330261
 20
503.003754
 11
665.491577
 21
503.888611
  0
LINE
  8
LC-008-003-----0
 62
     2
  6
DIVIDE
 10
665.491577
 20
503.888611
 11
652.399597
 21
502.045197
  0
LINE
  8
LC-008-003-----0
 62
     2
  6
DIVIDE
 10
652.399597
 20
502.045197
 11
646.330261
 21
502.717804
  0
LINE
  8
LC-008-003-----0
 62
     2
  6
DIVIDE
 10
671.330261
 20
520.136230
 11
671.330261
 21
503.003754
  0
LINE
  8
LC-008-003-----0
 62
     2
  6
DIVIDE
 10
646.330261
 20
520.136230
 11
646.330261
 21
502.717804
  0
LINE
  8
LC-008-003-----0
 62
     2
  6
DIVIDE
 10
687.330261
 20
495.303223
 11
687.330261
 21
520.136230
  0
LINE
  8
LC-008-003-----0
 62
     2
  6
DIVIDE
 10
687.330261
 20
495.303223
 11
681.575562
 21
494.299835
  0
LINE
  8
LC-008-003-----0
 62
     2
  6
DIVIDE
 10
681.575562
 20
494.299835
 11
672.494019
 21
495.723236
  0
LINE
  8
LC-008-003-----0
 62
     2
  6
DIVIDE
 10
630.330261
 20
495.005280
 11
630.330261
 21
520.136230
  0
LINE
  8
LC-008-003-----0
 62
     2
  6
DIVIDE
 10
645.330261
 20
495.751495
 11
645.330261
 21
520.136230
  0
LINE
  8
LC-008-003-----0
 62
     2
  6
DIVIDE
 10
653.952698
 20
495.988892
 11
653.952698
 21
520.136230
  0
LINE
  8
LC-008-003-----0
 62
     2
  6
DIVIDE
 10
663.707825
 20
494.813171
 11
663.707825
 21
520.136230
  0
LINE
  8
LC-008-003-----0
 62
     2
  6
DIVIDE
 10
672.330261
 20
495.706268
 11
672.330261
 21
520.136230
  0
LINE
  8
LC-008-003-----0
 62
     2
  6
DIVIDE
 10
672.494019
 20
495.723236
 11
662.678040
 21
494.706512
  0
LINE
  8
LC-008-003-----0
 62
     2
  6
DIVIDE
 10
662.678040
 20
494.706512
 11
650.206848
 21
496.539398
  0
LINE
  8
LC-008-003-----0
 62
     2
  6
DIVIDE
 10
650.206848
 20
496.539398
 11
637.184753
 21
494.435394
  0
LINE
  8
LC-008-003-----0
 62
     2
  6
DIVIDE
 10
637.184753
 20
494.435394
 11
630.330261
 21
495.005280
  0
LINE
  8
LC-008-003-----0
 62
     2
  6
DIVIDE
 10
671.330261
 20
695.136230
 11
646.330261
 21
695.136230
  0
LINE
  8
LC-008-003-----0
 62
     2
  6
DIVIDE
 10
671.330261
 20
695.136230
 11
671.330261
 21
680.136230
  0
LINE
  8
LC-008-003-----0
 62
     2
  6
DIVIDE
 10
646.330261
 20
695.136230
 11
646.330261
 21
680.136230
  0
LINE
  8
LC-008-003-----0
 62
     2
  6
DIVIDE
 10
687.330261
 20
695.136230
 11
687.330261
 21
680.136230
  0
LINE
  8
LC-008-003-----0
 62
     2
  6
DIVIDE
 10
687.330261
 20
695.136230
 11
671.330261
 21
695.136230
  0
LINE
  8
LC-008-003-----0
 62
     2
  6
DIVIDE
 10
646.330261
 20
695.136230
 11
630.330261
 21
695.136230
  0
LINE
  8
LC-008-003-----0
 62
     2
  6
DIVIDE
 10
630.330261
 20
695.136230
 11
630.330261
 21
680.136230
  0
LINE
  8
LC-008-003-----0
 62
     2
  6
DIVIDE
 10
645.330261
 20
695.136230
 11
645.330261
 21
680.136230
  0
LINE
  8
LC-008-003-----0
 62
     2
  6
DIVIDE
 10
672.330261
 20
695.136230
 11
672.330261
 21
680.136230
  0
LINE
  8
LC-008-003-----0
 62
     2
  6
DIVIDE
 10
663.707825
 20
695.136230
 11
663.707825
 21
680.136230
  0
LINE
  8
LC-008-003-----0
 62
     2
  6
DIVIDE
 10
653.952698
 20
695.136230
 11
653.952698
 21
680.136230
  0
LINE
  8
LC-003-002-----0
 62
     1
  6
CONTINUOUS
 10
729.829285
 20
730.140137
 11
889.829285
 21
730.140137
  0
LINE
  8
LC-003-002-----0
 62
     1
  6
CONTINUOUS
 10
729.829285
 20
781.140137
 11
729.829285
 21
730.140137
  0
LINE
  8
LC-006-012-----0
 62
     2
  6
DASHED
 10
734.829285
 20
759.140137
 11
734.829285
 21
781.140137
  0
LINE
  8
LC-006-012-----0
 62
     2
  6
DASHED
 10
744.829285
 20
759.140137
 11
744.829285
 21
781.140137
  0
LINE
  8
LC-006-012-----0
 62
     2
  6
DASHED
 10
735.729309
 20
739.140137
 11
735.729309
 21
781.140137
  0
LINE
  8
LC-006-012-----0
 62
     2
  6
DASHED
 10
743.929321
 20
739.140137
 11
743.929321
 21
781.140137
  0
LINE
  8
LC-006-012-----0
 62
     2
  6
DASHED
 10
744.829285
 20
759.140137
 11
734.829285
 21
759.140137
  0
LINE
  8
LC-006-012-----0
 62
     2
  6
DASHED
 10
747.329285
 20
739.140137
 11
732.329285
 21
739.140137
  0
LINE
  8
LC-006-012-----0
 62
     2
  6
DASHED
 10
732.329285
 20
730.140137
 11
732.329285
 21
739.140137
  0
LINE
  8
LC-006-012-----0
 62
     2
  6
DASHED
 10
747.329285
 20
730.140137
 11
747.329285
 21
739.140137
  0
LINE
  8
LC-004-006-----0
 62
     2
  6
DASHDOT
 10
739.829285
 20
725.675232
 11
739.829285
 21
785.125732
  0
LINE
  8
LC-006-012-----0
 62
     2
  6
DASHED
 10
884.829285
 20
759.140137
 11
884.829285
 21
781.140137
  0
LINE
  8
LC-006-012-----0
 62
     2
  6
DASHED
 10
874.829285
 20
759.140137
 11
874.829285
 21
781.140137
  0
LINE
  8
LC-006-012-----0
 62
     2
  6
DASHED
 10
883.929321
 20
739.140137
 11
883.929321
 21
781.140137
  0
LINE
  8
LC-006-012-----0
 62
     2
  6
DASHED
 10
875.729309
 20
739.140137
 11
875.729309
 21
781.140137
  0
LINE
  8
LC-006-012-----0
 62
     2
  6
DASHED
 10
874.829285
 20
759.140137
 11
884.829285
 21
759.140137
  0
LINE
  8
LC-006-012-----0
 62
     2
  6
DASHED
 10
872.329285
 20
739.140137
 11
887.329285
 21
739.140137
  0
LINE
  8
LC-006-012-----0
 62
     2
  6
DASHED
 10
887.329285
 20
730.140137
 11
887.329285
 21
739.140137
  0
LINE
  8
LC-006-012-----0
 62
     2
  6
DASHED
 10
872.329285
 20
730.140137
 11
872.329285
 21
739.140137
  0
LINE
  8
LC-004-006-----0
 62
     2
  6
DASHDOT
 10
879.829285
 20
725.675232
 11
879.829285
 21
785.125732
  0
LINE
  8
LC-004-006-----0
 62
     2
  6
DASHDOT
 10
710.066345
 20
751.140137
 11
908.963013
 21
751.140137
  0
LINE
  8
LC-006-012-----0
 62
     2
  6
DASHED
 10
729.829285
 20
771.140137
 11
787.829285
 21
771.140137
  0
LINE
  8
LC-006-012-----0
 62
     2
  6
DASHED
 10
729.829285
 20
733.819641
 11
787.829285
 21
733.819641
  0
LINE
  8
LC-006-012-----0
 62
     2
  6
DASHED
 10
787.829285
 20
771.140137
 11
787.829285
 21
733.819641
  0
LINE
  8
LC-006-012-----0
 62
     2
  6
DASHED
 10
831.829285
 20
771.140137
 11
831.829285
 21
733.819641
  0
LINE
  8
LC-006-012-----0
 62
     2
  6
DASHED
 10
787.829285
 20
771.140137
 11
831.829285
 21
771.140137
  0
LINE
  8
LC-006-012-----0
 62
     2
  6
DASHED
 10
831.829285
 20
771.140137
 11
889.829285
 21
771.140137
  0
LINE
  8
LC-006-012-----0
 62
     2
  6
DASHED
 10
787.829285
 20
733.819641
 11
831.829285
 21
733.819641
  0
LINE
  8
LC-006-012-----0
 62
     2
  6
DASHED
 10
831.829285
 20
733.819641
 11
889.829285
 21
733.819641
  0
LINE
  8
LC-008-003-----0
 62
     2
  6
DIVIDE
 10
714.829285
 20
763.640137
 11
729.829285
 21
763.640137
  0
LINE
  8
LC-008-003-----0
 62
     2
  6
DIVIDE
 10
714.829285
 20
738.640137
 11
729.829285
 21
738.640137
  0
LINE
  8
LC-008-003-----0
 62
     2
  6
DIVIDE
 10
714.829285
 20
763.640137
 11
714.829285
 21
738.640137
  0
LINE
  8
LC-006-012-----0
 62
     2
  6
DASHED
 10
729.829285
 20
763.640137
 11
889.829285
 21
763.640137
  0
LINE
  8
LC-006-012-----0
 62
     2
  6
DASHED
 10
729.829285
 20
738.640137
 11
889.829285
 21
738.640137
  0
LINE
  8
LC-008-003-----0
 62
     2
  6
DIVIDE
 10
714.829285
 20
715.140137
 11
904.266541
 21
715.140137
  0
LINE
  8
LC-008-003-----0
 62
     2
  6
DIVIDE
 10
714.829285
 20
721.140137
 11
903.690674
 21
721.140137
  0
LINE
  8
LC-008-003-----0
 62
     2
  6
DIVIDE
 10
714.829285
 20
738.640137
 11
714.829285
 21
715.140137
  0
LINE
  8
LC-008-003-----0
 62
     2
  6
DIVIDE
 10
714.829285
 20
739.631042
 11
904.919312
 21
739.631042
  0
LINE
  8
LC-008-003-----0
 62
     2
  6
DIVIDE
 10
904.266541
 20
715.140137
 11
903.363586
 21
724.548401
  0
LINE
  8
LC-008-003-----0
 62
     2
  6
DIVIDE
 10
903.363586
 20
724.548401
 11
905.323364
 21
735.615845
  0
LINE
  8
LC-008-003-----0
 62
     2
  6
DIVIDE
 10
905.323364
 20
735.615845
 11
905.019043
 21
738.640137
  0
LINE
  8
LC-008-003-----0
 62
     2
  6
DIVIDE
 10
904.063477
 20
748.134583
 11
905.183411
 21
758.788635
  0
LINE
  8
LC-008-003-----0
 62
     2
  6
DIVIDE
 10
905.183411
 20
758.788635
 11
904.951050
 21
763.640137
  0
LINE
  8
LC-008-003-----0
 62
     2
  6
DIVIDE
 10
905.019043
 20
738.640137
 11
904.063477
 21
748.134583
  0
LINE
  8
LC-008-003-----0
 62
     2
  6
DIVIDE
 10
889.829285
 20
763.640137
 11
904.951050
 21
763.640137
  0
LINE
  8
LC-008-003-----0
 62
     2
  6
DIVIDE
 10
889.829285
 20
738.640137
 11
905.019043
 21
738.640137
  0
LINE
  8
LC-008-003-----0
 62
     2
  6
DASHED
 10
905.019043
 20
738.640137
 11
905.019043
 21
738.640137
  0
ENDSEC
  0
EOF
