  0
SECTION
  2
HEADER
  9
$LIMMIN
 10
-91.765816
 20
595.083984
  9
$LIMMAX
 10
-21.731140
 20
658.968384
  9
$EXTMIN
 10
-91.765816
 20
595.083984
  9
$EXTMAX
 10
-21.731140
 20
658.968384
  0
ENDSEC
  0
SECTION
  2
TABLES
  0
TABLE
  2
LTYPE
 70
     3
  0
LTYPE
  2
CONTINUOUS
 70
    64
  3
Ausgezogene Linie
 72
    65
 73
     0
 40
0.0
  0
LTYPE
  2
DASHED
 70
    64
  3
__ __ __ __ __ __ __ __ __ __ __ __ __ __ __
 72
    65
 73
     2
 40
0.75
 49
0.5
 49
-0.25
  0
LTYPE
  2
DASHDOT
 70
    64
  3
__ . __ . __ . __ . __ . __ . __ . __ . __ . __
 72
    65
 73
     4
 40
1.0
 49
0.5
 49
-0.25
 49
0.0
 49
-0.25
  0
ENDTAB
  0
TABLE
  2
LAYER
 70
     4
  0
LAYER
  2
LC-003-002-----0
 70
    64
 62
     7
  6
CONTINUOUS
  0
LAYER
  2
LC-005-002-RND-0
 70
    64
 62
     7
  6
CONTINUOUS
  0
LAYER
  2
LC-008-003-----0
 70
    64
 62
     7
  6
CONTINUOUS
  0
LAYER
  2
LC-007-004-----0
 70
    64
 62
     7
  6
CONTINUOUS
  0
ENDTAB
  0
TABLE
  2
STYLE
 70
     1
  0
STYLE
  2
TXT8
 70
    64
 40
0.0
 41
1.0
 50
0.0
 71
     0
 42
3.500000
  3
TXT8
  4

  0
ENDTAB
  0
ENDSEC
  0
SECTION
  2
BLOCKS
  0
ENDSEC
  0
SECTION
  2
ENTITIES
  0
LINE
  8
LC-003-002-----0
 62
     1
  6
CONTINUOUS
 10
-91.208214
 20
631.348877
 11
-59.208214
 21
631.348877
  0
LINE
  8
LC-003-002-----0
 62
     1
  6
CONTINUOUS
 10
-90.208214
 20
636.348877
 11
-84.208214
 21
636.348877
  0
LINE
  8
LC-005-002-RND-0
 62
     2
  6
DASHDOT
 10
-75.208214
 20
630.477112
 11
-75.208214
 21
658.968384
  0
LINE
  8
LC-003-002-----0
 62
     1
  6
CONTINUOUS
 10
-67.208214
 20
637.348877
 11
-67.208214
 21
657.348877
  0
LINE
  8
LC-003-002-----0
 62
     1
  6
CONTINUOUS
 10
-83.208214
 20
637.348877
 11
-83.208214
 21
657.348877
  0
LINE
  8
LC-003-002-----0
 62
     1
  6
CONTINUOUS
 10
-66.208214
 20
636.348877
 11
-60.208214
 21
636.348877
  0
LINE
  8
LC-005-002-RND-0
 62
     2
  6
DASHDOT
 10
-80.142776
 20
646.348877
 11
-70.212631
 21
646.348877
  0
LINE
  8
LC-003-002-----0
 62
     1
  6
CONTINUOUS
 10
-82.208214
 20
658.348877
 11
-75.708214
 21
658.348877
  0
LINE
  8
LC-003-002-----0
 62
     1
  6
CONTINUOUS
 10
-90.208214
 20
605.901489
 11
-60.208214
 21
605.901489
  0
LINE
  8
LC-005-002-RND-0
 62
     2
  6
DASHDOT
 10
-62.708214
 20
630.477112
 11
-62.708214
 21
637.188354
  0
LINE
  8
LC-005-002-RND-0
 62
     2
  6
DASHDOT
 10
-87.708214
 20
630.477112
 11
-87.708214
 21
637.188354
  0
LINE
  8
LC-003-002-----0
 62
     1
  6
CONTINUOUS
 10
-59.208214
 20
631.348877
 11
-59.208214
 21
635.348877
  0
LINE
  8
LC-003-002-----0
 62
     1
  6
CONTINUOUS
 10
-91.208214
 20
631.348877
 11
-91.208214
 21
635.348877
  0
LINE
  8
LC-003-002-----0
 62
     1
  6
CONTINUOUS
 10
-74.708214
 20
650.317505
 11
-74.708214
 21
658.348877
  0
LINE
  8
LC-003-002-----0
 62
     1
  6
CONTINUOUS
 10
-75.708214
 20
650.317505
 11
-75.708214
 21
658.348877
  0
LINE
  8
LC-003-002-----0
 62
     1
  6
CONTINUOUS
 10
-74.708214
 20
658.348877
 11
-68.208214
 21
658.348877
  0
ARC
  8
LC-003-002-----0
 62
     1
  6
CONTINUOUS
 10
-75.208214
 20
646.348877
 40
4.000000
 50
97.180758
 51
82.819247
  0
LINE
  8
LC-008-003-----0
 62
     2
  6
DASHED
 10
-85.458214
 20
631.348877
 11
-85.458214
 21
636.348877
  0
LINE
  8
LC-008-003-----0
 62
     2
  6
DASHED
 10
-89.958214
 20
631.348877
 11
-89.958214
 21
636.348877
  0
LINE
  8
LC-008-003-----0
 62
     2
  6
DASHED
 10
-64.958214
 20
631.348877
 11
-64.958214
 21
636.348877
  0
LINE
  8
LC-008-003-----0
 62
     2
  6
DASHED
 10
-60.458214
 20
631.348877
 11
-60.458214
 21
636.348877
  0
ARC
  8
LC-003-002-----0
 62
     1
  6
CONTINUOUS
 10
-90.208214
 20
635.348877
 40
1.000000
 50
90.000003
 51
180.000009
  0
ARC
  8
LC-003-002-----0
 62
     1
  6
CONTINUOUS
 10
-84.208214
 20
637.348877
 40
1.000000
 50
269.999997
 51
0.000000
  0
ARC
  8
LC-003-002-----0
 62
     1
  6
CONTINUOUS
 10
-82.208214
 20
657.348877
 40
1.000000
 50
90.000003
 51
180.000009
  0
ARC
  8
LC-003-002-----0
 62
     1
  6
CONTINUOUS
 10
-68.208214
 20
657.348877
 40
1.000000
 50
0.000000
 51
90.000003
  0
ARC
  8
LC-003-002-----0
 62
     1
  6
CONTINUOUS
 10
-66.208214
 20
637.348877
 40
1.000000
 50
180.000009
 51
269.999997
  0
ARC
  8
LC-003-002-----0
 62
     1
  6
CONTINUOUS
 10
-60.208214
 20
635.348877
 40
1.000000
 50
0.000000
 51
90.000003
  0
LINE
  8
LC-005-002-RND-0
 62
     2
  6
DASHDOT
 10
-84.868721
 20
654.348877
 11
-66.194275
 21
654.348877
  0
LINE
  8
LC-008-003-----0
 62
     2
  6
DASHED
 10
-79.708214
 20
656.148926
 11
-75.708214
 21
656.148926
  0
LINE
  8
LC-008-003-----0
 62
     2
  6
DASHED
 10
-79.708214
 20
652.548889
 11
-75.708214
 21
652.548889
  0
LINE
  8
LC-008-003-----0
 62
     2
  6
DASHED
 10
-79.708214
 20
651.348877
 11
-79.708214
 21
657.348877
  0
LINE
  8
LC-008-003-----0
 62
     2
  6
DASHED
 10
-83.208214
 20
657.348877
 11
-79.708214
 21
657.348877
  0
LINE
  8
LC-008-003-----0
 62
     2
  6
DASHED
 10
-83.208214
 20
651.348877
 11
-79.708214
 21
651.348877
  0
LINE
  8
LC-008-003-----0
 62
     2
  6
DASHED
 10
-71.897018
 20
655.848877
 11
-69.208214
 21
655.848877
  0
LINE
  8
LC-008-003-----0
 62
     2
  6
DASHED
 10
-71.897018
 20
652.848877
 11
-69.208214
 21
652.848877
  0
LINE
  8
LC-008-003-----0
 62
     2
  6
DASHED
 10
-71.709381
 20
655.523926
 11
-67.208214
 21
655.523926
  0
LINE
  8
LC-008-003-----0
 62
     2
  6
DASHED
 10
-71.709381
 20
653.173889
 11
-67.208214
 21
653.173889
  0
LINE
  8
LC-008-003-----0
 62
     2
  6
DASHED
 10
-69.208214
 20
652.848877
 11
-69.208214
 21
655.848877
  0
LINE
  8
LC-003-002-----0
 62
     1
  6
CONTINUOUS
 10
-91.208214
 20
604.901489
 11
-91.208214
 21
596.901489
  0
LINE
  8
LC-003-002-----0
 62
     1
  6
CONTINUOUS
 10
-90.208214
 20
595.901489
 11
-60.208214
 21
595.901489
  0
LINE
  8
LC-003-002-----0
 62
     1
  6
CONTINUOUS
 10
-59.208214
 20
604.901489
 11
-59.208214
 21
596.901489
  0
LINE
  8
LC-003-002-----0
 62
     1
  6
CONTINUOUS
 10
-83.208214
 20
604.901489
 11
-83.208214
 21
596.901489
  0
LINE
  8
LC-003-002-----0
 62
     1
  6
CONTINUOUS
 10
-67.208214
 20
604.901489
 11
-67.208214
 21
596.901489
  0
LINE
  8
LC-003-002-----0
 62
     1
  6
CONTINUOUS
 10
-60.208214
 20
595.901489
 11
-90.208214
 21
595.901489
  0
LINE
  8
LC-005-002-RND-0
 62
     2
  6
DASHDOT
 10
-75.208214
 20
606.564575
 11
-75.208214
 21
595.083984
  0
LINE
  8
LC-005-002-RND-0
 62
     2
  6
DASHDOT
 10
-87.708214
 20
603.466187
 11
-87.708214
 21
598.367798
  0
LINE
  8
LC-008-003-----0
 62
     2
  6
DASHED
 10
-79.208214
 20
605.901489
 11
-79.208214
 21
595.901489
  0
LINE
  8
LC-003-002-----0
 62
     1
  6
CONTINUOUS
 10
-33.131054
 20
631.348877
 11
-23.131058
 21
631.348877
  0
CIRCLE
  8
LC-003-002-----0
 62
     1
  6
CONTINUOUS
 10
-87.708214
 20
600.901489
 40
2.250000
  0
LINE
  8
LC-005-002-RND-0
 62
     2
  6
DASHDOT
 10
-62.708214
 20
603.466187
 11
-62.708214
 21
598.367798
  0
LINE
  8
LC-003-002-----0
 62
     1
  6
CONTINUOUS
 10
-32.131054
 20
636.348877
 11
-24.131058
 21
636.348877
  0
CIRCLE
  8
LC-003-002-----0
 62
     1
  6
CONTINUOUS
 10
-62.708214
 20
600.901489
 40
2.250000
  0
LINE
  8
LC-008-003-----0
 62
     2
  6
DASHED
 10
-71.208214
 20
605.901489
 11
-71.208214
 21
595.901489
  0
LINE
  8
LC-003-002-----0
 62
     1
  6
CONTINUOUS
 10
-75.708214
 20
605.901489
 11
-75.708214
 21
595.901489
  0
LINE
  8
LC-008-003-----0
 62
     2
  6
DASHED
 10
-79.708214
 20
597.901489
 11
-79.708214
 21
603.901489
  0
LINE
  8
LC-008-003-----0
 62
     2
  6
DASHED
 10
-74.708214
 20
602.401489
 11
-69.208214
 21
602.401489
  0
LINE
  8
LC-008-003-----0
 62
     2
  6
DASHED
 10
-74.708214
 20
599.401489
 11
-69.208214
 21
599.401489
  0
LINE
  8
LC-008-003-----0
 62
     2
  6
DASHED
 10
-71.709381
 20
602.076477
 11
-67.208214
 21
602.076477
  0
LINE
  8
LC-008-003-----0
 62
     2
  6
DASHED
 10
-71.709381
 20
599.726501
 11
-67.208214
 21
599.726501
  0
LINE
  8
LC-008-003-----0
 62
     2
  6
DASHED
 10
-69.208214
 20
599.401489
 11
-69.208214
 21
602.401489
  0
LINE
  8
LC-008-003-----0
 62
     2
  6
DASHED
 10
-83.208214
 20
597.901489
 11
-79.708214
 21
597.901489
  0
LINE
  8
LC-008-003-----0
 62
     2
  6
DASHED
 10
-83.208214
 20
603.901489
 11
-79.708214
 21
603.901489
  0
LINE
  8
LC-008-003-----0
 62
     2
  6
DASHED
 10
-79.708214
 20
602.701477
 11
-75.708214
 21
602.701477
  0
LINE
  8
LC-008-003-----0
 62
     2
  6
DASHED
 10
-79.708214
 20
599.101501
 11
-75.708214
 21
599.101501
  0
LINE
  8
LC-005-002-RND-0
 62
     2
  6
DASHDOT
 10
-91.765816
 20
600.901489
 11
-58.365158
 21
600.901489
  0
LINE
  8
LC-003-002-----0
 62
     1
  6
CONTINUOUS
 10
-74.708214
 20
605.901489
 11
-74.708214
 21
595.901489
  0
LINE
  8
LC-003-002-----0
 62
     1
  6
CONTINUOUS
 10
-32.131054
 20
658.348877
 11
-24.131058
 21
658.348877
  0
LINE
  8
LC-003-002-----0
 62
     1
  6
CONTINUOUS
 10
-23.131056
 20
631.348877
 11
-23.131056
 21
657.348877
  0
LINE
  8
LC-003-002-----0
 62
     1
  6
CONTINUOUS
 10
-33.131054
 20
631.348877
 11
-33.131054
 21
657.348877
  0
LINE
  8
LC-008-003-----0
 62
     2
  6
DASHED
 10
-33.131054
 20
642.348877
 11
-23.131058
 21
642.348877
  0
LINE
  8
LC-008-003-----0
 62
     2
  6
DASHED
 10
-33.131054
 20
650.317505
 11
-23.131058
 21
650.317505
  0
LINE
  8
LC-005-002-RND-0
 62
     2
  6
DASHDOT
 10
-32.122375
 20
654.348877
 11
-24.226526
 21
654.348877
  0
LINE
  8
LC-005-002-RND-0
 62
     2
  6
DASHDOT
 10
-28.131056
 20
650.600647
 11
-28.131056
 21
657.985718
  0
CIRCLE
  8
LC-003-002-----0
 62
     1
  6
CONTINUOUS
 10
-28.131056
 20
654.348877
 40
3.000000
  0
LINE
  8
LC-005-002-RND-0
 62
     2
  6
DASHDOT
 10
-34.133583
 20
646.348877
 11
-21.731140
 21
646.348877
  0
ARC
  8
LC-003-002-----0
 62
     1
  6
CONTINUOUS
 10
-32.131054
 20
635.348877
 40
1.000000
 50
90.000003
 51
180.000009
  0
LINE
  8
LC-005-002-RND-0
 62
     2
  6
DASHDOT
 10
-28.131056
 20
630.477112
 11
-28.131056
 21
637.188354
  0
LINE
  8
LC-008-003-----0
 62
     2
  6
DASHED
 10
-30.381056
 20
631.348877
 11
-30.381056
 21
636.348877
  0
LINE
  8
LC-008-003-----0
 62
     2
  6
DASHED
 10
-25.881056
 20
631.348877
 11
-25.881056
 21
636.348877
  0
ARC
  8
LC-003-002-----0
 62
     1
  6
CONTINUOUS
 10
-24.131056
 20
635.348877
 40
1.000000
 50
0.000000
 51
90.000003
  0
ARC
  8
LC-003-002-----0
 62
     1
  6
CONTINUOUS
 10
-32.131054
 20
657.348877
 40
1.000000
 50
90.000003
 51
180.000009
  0
ARC
  8
LC-003-002-----0
 62
     1
  6
CONTINUOUS
 10
-24.131056
 20
657.348877
 40
1.000000
 50
0.000000
 51
90.000003
  0
ARC
  8
LC-003-002-----0
 62
     1
  6
CONTINUOUS
 10
-82.208214
 20
604.901489
 40
1.000000
 50
90.000003
 51
180.000009
  0
ARC
  8
LC-003-002-----0
 62
     1
  6
CONTINUOUS
 10
-82.208214
 20
596.901489
 40
1.000000
 50
180.000009
 51
269.999997
  0
ARC
  8
LC-003-002-----0
 62
     1
  6
CONTINUOUS
 10
-68.208214
 20
604.901489
 40
1.000000
 50
0.000000
 51
90.000003
  0
ARC
  8
LC-003-002-----0
 62
     1
  6
CONTINUOUS
 10
-68.208214
 20
596.901489
 40
1.000000
 50
269.999997
 51
0.000000
  0
ARC
  8
LC-003-002-----0
 62
     1
  6
CONTINUOUS
 10
-90.208214
 20
604.901489
 40
1.000000
 50
90.000003
 51
180.000009
  0
ARC
  8
LC-003-002-----0
 62
     1
  6
CONTINUOUS
 10
-90.208214
 20
596.901489
 40
1.000000
 50
180.000009
 51
269.999997
  0
ARC
  8
LC-003-002-----0
 62
     1
  6
CONTINUOUS
 10
-60.208214
 20
604.901489
 40
1.000000
 50
0.000000
 51
90.000003
  0
ARC
  8
LC-003-002-----0
 62
     1
  6
CONTINUOUS
 10
-60.208214
 20
596.901489
 40
1.000000
 50
269.999997
 51
0.000000
  0
LINE
  8
LC-003-002-----0
 62
     1
  6
CONTINUOUS
 10
-74.708214
 20
655.848877
 11
-75.708214
 21
655.848877
  0
LINE
  8
LC-007-004-----0
 62
     2
  6
CONTINUOUS
 10
-74.708214
 20
655.523926
 11
-75.708214
 21
655.523926
  0
LINE
  8
LC-007-004-----0
 62
     2
  6
CONTINUOUS
 10
-74.708214
 20
653.173889
 11
-75.708214
 21
653.173889
  0
LINE
  8
LC-007-004-----0
 62
     2
  6
CONTINUOUS
 10
-74.708214
 20
602.076477
 11
-75.708214
 21
602.076477
  0
LINE
  8
LC-007-004-----0
 62
     2
  6
CONTINUOUS
 10
-74.708214
 20
599.726501
 11
-75.708214
 21
599.726501
  0
LINE
  8
LC-008-003-----0
 62
     2
  6
DASHED
 10
-82.159378
 20
603.651489
 11
-79.709381
 21
603.651489
  0
ARC
  8
LC-008-003-----0
 62
     2
  6
DASHED
 10
-82.159378
 20
603.101501
 40
0.550000
 50
90.000003
 51
180.000009
  0
LINE
  8
LC-008-003-----0
 62
     2
  6
DASHED
 10
-82.709381
 20
598.701477
 11
-82.709381
 21
603.101501
  0
LINE
  8
LC-008-003-----0
 62
     2
  6
DASHED
 10
-82.159378
 20
598.151489
 11
-79.709381
 21
598.151489
  0
ARC
  8
LC-008-003-----0
 62
     2
  6
DASHED
 10
-82.159378
 20
598.701477
 40
0.550000
 50
180.000009
 51
269.999997
  0
LINE
  8
LC-008-003-----0
 62
     2
  6
DASHED
 10
-71.897018
 20
599.401489
 11
-71.709381
 21
599.726501
  0
LINE
  8
LC-008-003-----0
 62
     2
  6
DASHED
 10
-71.897018
 20
602.401489
 11
-71.709381
 21
602.076477
  0
LINE
  8
LC-008-003-----0
 62
     2
  6
DASHED
 10
-74.708214
 20
602.401489
 11
-71.897018
 21
602.401489
  0
LINE
  8
LC-008-003-----0
 62
     1
  6
CONTINUOUS
 10
-75.708214
 20
602.401489
 11
-74.708214
 21
602.401489
  0
LINE
  8
LC-008-003-----0
 62
     2
  6
DASHED
 10
-79.709381
 20
602.401489
 11
-75.708214
 21
602.401489
  0
LINE
  8
LC-008-003-----0
 62
     2
  6
DASHED
 10
-74.708214
 20
599.401489
 11
-71.897018
 21
599.401489
  0
LINE
  8
LC-008-003-----0
 62
     1
  6
CONTINUOUS
 10
-75.708214
 20
599.401489
 11
-74.708214
 21
599.401489
  0
LINE
  8
LC-008-003-----0
 62
     2
  6
DASHED
 10
-79.709381
 20
599.401489
 11
-75.708214
 21
599.401489
  0
LINE
  8
LC-008-003-----0
 62
     2
  6
DASHED
 10
-71.709381
 20
599.726501
 11
-78.209381
 21
599.726501
  0
LINE
  8
LC-008-003-----0
 62
     2
  6
DASHED
 10
-71.709381
 20
602.076477
 11
-78.209381
 21
602.076477
  0
LINE
  8
LC-008-003-----0
 62
     2
  6
DASHED
 10
-71.709381
 20
602.076477
 11
-71.709381
 21
599.726501
  0
LINE
  8
LC-008-003-----0
 62
     2
  6
DASHED
 10
-71.897018
 20
602.401489
 11
-71.897018
 21
599.401489
  0
LINE
  8
LC-008-003-----0
 62
     2
  6
DASHED
 10
-78.209381
 20
602.401489
 11
-78.209381
 21
599.401489
  0
LINE
  8
LC-008-003-----0
 62
     2
  6
DASHED
 10
-82.159378
 20
657.098877
 11
-79.709381
 21
657.098877
  0
ARC
  8
LC-008-003-----0
 62
     2
  6
DASHED
 10
-82.159378
 20
656.548889
 40
0.550000
 50
90.000003
 51
180.000009
  0
LINE
  8
LC-008-003-----0
 62
     2
  6
DASHED
 10
-82.709381
 20
652.148926
 11
-82.709381
 21
656.548889
  0
LINE
  8
LC-008-003-----0
 62
     2
  6
DASHED
 10
-82.159378
 20
651.598877
 11
-79.709381
 21
651.598877
  0
ARC
  8
LC-008-003-----0
 62
     2
  6
DASHED
 10
-82.159378
 20
652.148926
 40
0.550000
 50
180.000009
 51
269.999997
  0
LINE
  8
LC-008-003-----0
 62
     2
  6
DASHED
 10
-71.897018
 20
652.848877
 11
-71.709381
 21
653.173889
  0
LINE
  8
LC-008-003-----0
 62
     2
  6
DASHED
 10
-71.897018
 20
655.848877
 11
-71.709381
 21
655.523926
  0
LINE
  8
LC-008-003-----0
 62
     2
  6
DASHED
 10
-74.708214
 20
655.848877
 11
-71.897018
 21
655.848877
  0
LINE
  8
LC-008-003-----0
 62
     2
  6
DASHED
 10
-79.709381
 20
655.848877
 11
-75.708214
 21
655.848877
  0
LINE
  8
LC-008-003-----0
 62
     2
  6
DASHED
 10
-74.708214
 20
652.848877
 11
-71.897018
 21
652.848877
  0
LINE
  8
LC-008-003-----0
 62
     1
  6
CONTINUOUS
 10
-75.708214
 20
652.848877
 11
-74.708214
 21
652.848877
  0
LINE
  8
LC-008-003-----0
 62
     2
  6
DASHED
 10
-79.709381
 20
652.848877
 11
-75.708214
 21
652.848877
  0
LINE
  8
LC-008-003-----0
 62
     2
  6
DASHED
 10
-71.709381
 20
653.173889
 11
-78.209381
 21
653.173889
  0
LINE
  8
LC-008-003-----0
 62
     2
  6
DASHED
 10
-71.709381
 20
655.523926
 11
-78.209381
 21
655.523926
  0
LINE
  8
LC-008-003-----0
 62
     2
  6
DASHED
 10
-71.709381
 20
655.523926
 11
-71.709381
 21
653.173889
  0
LINE
  8
LC-008-003-----0
 62
     2
  6
DASHED
 10
-71.897018
 20
655.848877
 11
-71.897018
 21
652.848877
  0
LINE
  8
LC-008-003-----0
 62
     2
  6
DASHED
 10
-78.209381
 20
655.848877
 11
-78.209381
 21
652.848877
  0
ENDSEC
  0
EOF
