  0
SECTION
  2
HEADER
  9
$LIMMIN
 10
-105.868828
 20
210.326385
  9
$LIMMAX
 10
-2.214967
 20
307.996582
  9
$EXTMIN
 10
-105.868828
 20
210.326385
  9
$EXTMAX
 10
-2.214967
 20
307.996582
  0
ENDSEC
  0
SECTION
  2
TABLES
  0
TABLE
  2
LTYPE
 70
     3
  0
LTYPE
  2
CONTINUOUS
 70
    64
  3
Ausgezogene Linie
 72
    65
 73
     0
 40
0.0
  0
LTYPE
  2
DASHED
 70
    64
  3
__ __ __ __ __ __ __ __ __ __ __ __ __ __ __
 72
    65
 73
     2
 40
0.75
 49
0.5
 49
-0.25
  0
LTYPE
  2
DASHDOT
 70
    64
  3
__ . __ . __ . __ . __ . __ . __ . __ . __ . __
 72
    65
 73
     4
 40
1.0
 49
0.5
 49
-0.25
 49
0.0
 49
-0.25
  0
ENDTAB
  0
TABLE
  2
LAYER
 70
     4
  0
LAYER
  2
LC-003-002-----0
 70
    64
 62
     7
  6
CONTINUOUS
  0
LAYER
  2
LC-005-002-RND-0
 70
    64
 62
     7
  6
CONTINUOUS
  0
LAYER
  2
LC-008-003-----0
 70
    64
 62
     7
  6
CONTINUOUS
  0
LAYER
  2
LC-007-004-----0
 70
    64
 62
     7
  6
CONTINUOUS
  0
ENDTAB
  0
TABLE
  2
STYLE
 70
     1
  0
STYLE
  2
TXT8
 70
    64
 40
0.0
 41
1.0
 50
0.0
 71
     0
 42
3.500000
  3
TXT8
  4

  0
ENDTAB
  0
ENDSEC
  0
SECTION
  2
BLOCKS
  0
ENDSEC
  0
SECTION
  2
ENTITIES
  0
LINE
  8
LC-008-003-----0
 62
     2
  6
DASHED
 10
-79.763100
 20
221.911880
 11
-78.763100
 21
221.911880
  0
LINE
  8
LC-003-002-----0
 62
     1
  6
CONTINUOUS
 10
-19.631266
 20
264.073364
 11
-3.631267
 21
264.073364
  0
LINE
  8
LC-003-002-----0
 62
     1
  6
CONTINUOUS
 10
-3.631266
 20
264.073364
 11
-3.631266
 21
305.073364
  0
LINE
  8
LC-008-003-----0
 62
     2
  6
DASHED
 10
-82.263100
 20
221.911880
 11
-72.026962
 21
221.911880
  0
LINE
  8
LC-003-002-----0
 62
     1
  6
CONTINUOUS
 10
-78.763100
 20
221.911880
 11
-79.763100
 21
221.911880
  0
LINE
  8
LC-003-002-----0
 62
     1
  6
CONTINUOUS
 10
-19.631266
 20
264.073364
 11
-19.631266
 21
305.073364
  0
LINE
  8
LC-005-002-RND-0
 62
     2
  6
DASHDOT
 10
-79.263100
 20
307.996582
 11
-79.263100
 21
262.117401
  0
LINE
  8
LC-003-002-----0
 62
     1
  6
CONTINUOUS
 10
-104.263100
 20
264.073364
 11
-54.263107
 21
264.073364
  0
LINE
  8
LC-003-002-----0
 62
     1
  6
CONTINUOUS
 10
-91.263100
 20
306.073364
 11
-79.763100
 21
306.073364
  0
LINE
  8
LC-003-002-----0
 62
     1
  6
CONTINUOUS
 10
-66.263100
 20
305.073364
 11
-66.263100
 21
271.573364
  0
LINE
  8
LC-003-002-----0
 62
     1
  6
CONTINUOUS
 10
-92.263100
 20
305.073364
 11
-92.263100
 21
271.573364
  0
LINE
  8
LC-003-002-----0
 62
     1
  6
CONTINUOUS
 10
-103.263100
 20
270.573364
 11
-93.263100
 21
270.573364
  0
LINE
  8
LC-003-002-----0
 62
     1
  6
CONTINUOUS
 10
-54.263103
 20
269.573364
 11
-54.263103
 21
264.073364
  0
LINE
  8
LC-003-002-----0
 62
     1
  6
CONTINUOUS
 10
-104.263100
 20
269.573364
 11
-104.263100
 21
264.073364
  0
LINE
  8
LC-003-002-----0
 62
     1
  6
CONTINUOUS
 10
-65.263100
 20
270.573364
 11
-55.263107
 21
270.573364
  0
LINE
  8
LC-005-002-RND-0
 62
     2
  6
DASHDOT
 10
-88.521736
 20
289.073364
 11
-69.991524
 21
289.073364
  0
LINE
  8
LC-003-002-----0
 62
     1
  6
CONTINUOUS
 10
-18.631266
 20
270.573364
 11
-4.631267
 21
270.573364
  0
LINE
  8
LC-005-002-RND-0
 62
     2
  6
DASHDOT
 10
-59.263103
 20
271.505676
 11
-59.263103
 21
262.584595
  0
LINE
  8
LC-005-002-RND-0
 62
     2
  6
DASHDOT
 10
-99.263100
 20
271.505676
 11
-99.263100
 21
262.584595
  0
LINE
  8
LC-008-003-----0
 62
     2
  6
DASHED
 10
-96.513100
 20
270.573364
 11
-96.513100
 21
264.073364
  0
LINE
  8
LC-008-003-----0
 62
     2
  6
DASHED
 10
-102.013100
 20
270.573364
 11
-102.013100
 21
264.073364
  0
LINE
  8
LC-008-003-----0
 62
     2
  6
DASHED
 10
-62.013103
 20
270.573364
 11
-62.013103
 21
264.073364
  0
LINE
  8
LC-008-003-----0
 62
     2
  6
DASHED
 10
-56.513103
 20
270.573364
 11
-56.513103
 21
264.073364
  0
ARC
  8
LC-003-002-----0
 62
     1
  6
CONTINUOUS
 10
-103.263100
 20
269.573364
 40
1.000000
 50
90.000003
 51
180.000009
  0
ARC
  8
LC-003-002-----0
 62
     1
  6
CONTINUOUS
 10
-93.263100
 20
271.573364
 40
1.000000
 50
269.999997
 51
0.000000
  0
ARC
  8
LC-003-002-----0
 62
     1
  6
CONTINUOUS
 10
-91.263100
 20
305.073364
 40
1.000000
 50
90.000003
 51
180.000009
  0
ARC
  8
LC-003-002-----0
 62
     1
  6
CONTINUOUS
 10
-67.263100
 20
305.073364
 40
1.000000
 50
0.000000
 51
90.000003
  0
ARC
  8
LC-003-002-----0
 62
     1
  6
CONTINUOUS
 10
-65.263100
 20
271.573364
 40
1.000000
 50
180.000009
 51
269.999997
  0
ARC
  8
LC-003-002-----0
 62
     1
  6
CONTINUOUS
 10
-55.263103
 20
269.573364
 40
1.000000
 50
0.000000
 51
90.000003
  0
LINE
  8
LC-005-002-RND-0
 62
     2
  6
DASHDOT
 10
-94.006058
 20
301.073364
 11
-64.975845
 21
301.073364
  0
LINE
  8
LC-008-003-----0
 62
     2
  6
DASHED
 10
-92.263100
 20
305.073364
 11
-87.763100
 21
305.073364
  0
LINE
  8
LC-008-003-----0
 62
     2
  6
DASHED
 10
-92.263100
 20
297.073364
 11
-87.763100
 21
297.073364
  0
LINE
  8
LC-008-003-----0
 62
     2
  6
DASHED
 10
-87.763100
 20
303.473358
 11
-79.763100
 21
303.473358
  0
LINE
  8
LC-008-003-----0
 62
     2
  6
DASHED
 10
-87.763100
 20
298.673370
 11
-79.763100
 21
298.673370
  0
LINE
  8
LC-008-003-----0
 62
     2
  6
DASHED
 10
-87.763100
 20
305.073364
 11
-87.763100
 21
297.073364
  0
LINE
  8
LC-008-003-----0
 62
     2
  6
DASHED
 10
-72.026962
 20
303.073364
 11
-69.263100
 21
303.073364
  0
LINE
  8
LC-008-003-----0
 62
     2
  6
DASHED
 10
-72.026962
 20
299.073364
 11
-69.263100
 21
299.073364
  0
LINE
  8
LC-008-003-----0
 62
     2
  6
DASHED
 10
-71.764267
 20
302.618378
 11
-66.263100
 21
302.618378
  0
LINE
  8
LC-008-003-----0
 62
     2
  6
DASHED
 10
-71.764267
 20
299.528381
 11
-66.263100
 21
299.528381
  0
LINE
  8
LC-005-002-RND-0
 62
     2
  6
DASHDOT
 10
-22.326405
 20
289.073364
 11
-2.214967
 21
289.073364
  0
LINE
  8
LC-003-002-----0
 62
     1
  6
CONTINUOUS
 10
-78.763100
 20
306.073364
 11
-78.763100
 21
297.057739
  0
LINE
  8
LC-003-002-----0
 62
     1
  6
CONTINUOUS
 10
-79.763100
 20
306.073364
 11
-79.763100
 21
297.057739
  0
ARC
  8
LC-003-002-----0
 62
     1
  6
CONTINUOUS
 10
-79.263100
 20
289.073364
 40
8.000000
 50
93.583325
 51
86.416680
  0
LINE
  8
LC-008-003-----0
 62
     2
  6
DASHED
 10
-69.263100
 20
303.073364
 11
-69.263100
 21
299.073364
  0
LINE
  8
LC-005-002-RND-0
 62
     2
  6
DASHDOT
 10
-16.445625
 20
301.073364
 11
-6.779945
 21
301.073364
  0
LINE
  8
LC-003-002-----0
 62
     1
  6
CONTINUOUS
 10
-18.631266
 20
306.073364
 11
-4.631267
 21
306.073364
  0
LINE
  8
LC-005-002-RND-0
 62
     2
  6
DASHDOT
 10
-11.631266
 20
296.142426
 11
-11.631266
 21
305.726868
  0
LINE
  8
LC-008-003-----0
 62
     2
  6
DASHED
 10
-19.631266
 20
281.073364
 11
-3.631267
 21
281.073364
  0
LINE
  8
LC-008-003-----0
 62
     2
  6
DASHED
 10
-19.631266
 20
297.057739
 11
-3.631267
 21
297.057739
  0
LINE
  8
LC-005-002-RND-0
 62
     2
  6
DASHDOT
 10
-11.631266
 20
271.505676
 11
-11.631266
 21
262.584595
  0
LINE
  8
LC-008-003-----0
 62
     2
  6
DASHED
 10
-8.881266
 20
270.573364
 11
-8.881266
 21
264.073364
  0
LINE
  8
LC-008-003-----0
 62
     2
  6
DASHED
 10
-14.381266
 20
270.573364
 11
-14.381266
 21
264.073364
  0
CIRCLE
  8
LC-003-002-----0
 62
     1
  6
CONTINUOUS
 10
-11.631266
 20
301.073364
 40
4.000000
  0
ARC
  8
LC-003-002-----0
 62
     1
  6
CONTINUOUS
 10
-18.631266
 20
269.573364
 40
1.000000
 50
90.000003
 51
180.000009
  0
ARC
  8
LC-003-002-----0
 62
     1
  6
CONTINUOUS
 10
-4.631266
 20
269.573364
 40
1.000000
 50
0.000000
 51
90.000003
  0
ARC
  8
LC-003-002-----0
 62
     1
  6
CONTINUOUS
 10
-18.631266
 20
305.073364
 40
1.000000
 50
90.000003
 51
180.000009
  0
ARC
  8
LC-003-002-----0
 62
     1
  6
CONTINUOUS
 10
-4.631266
 20
305.073364
 40
1.000000
 50
0.000000
 51
90.000003
  0
LINE
  8
LC-003-002-----0
 62
     1
  6
CONTINUOUS
 10
-103.263100
 20
227.911880
 11
-55.263107
 21
227.911880
  0
LINE
  8
LC-003-002-----0
 62
     1
  6
CONTINUOUS
 10
-104.263100
 20
226.911880
 11
-104.263100
 21
212.911880
  0
LINE
  8
LC-003-002-----0
 62
     1
  6
CONTINUOUS
 10
-54.263103
 20
226.911880
 11
-54.263103
 21
212.911880
  0
LINE
  8
LC-003-002-----0
 62
     1
  6
CONTINUOUS
 10
-103.263100
 20
211.911880
 11
-55.263107
 21
211.911880
  0
LINE
  8
LC-005-002-RND-0
 62
     2
  6
DASHDOT
 10
-79.263100
 20
229.951004
 11
-79.263100
 21
210.326385
  0
LINE
  8
LC-003-002-----0
 62
     1
  6
CONTINUOUS
 10
-78.763100
 20
227.911880
 11
-78.763100
 21
211.911880
  0
LINE
  8
LC-003-002-----0
 62
     1
  6
CONTINUOUS
 10
-79.763100
 20
227.911880
 11
-79.763100
 21
211.911880
  0
LINE
  8
LC-005-002-RND-0
 62
     2
  6
DASHDOT
 10
-99.263100
 20
223.808365
 11
-99.263100
 21
215.782700
  0
LINE
  8
LC-005-002-RND-0
 62
     2
  6
DASHDOT
 10
-105.868828
 20
219.911880
 11
-52.295082
 21
219.911880
  0
CIRCLE
  8
LC-003-002-----0
 62
     1
  6
CONTINUOUS
 10
-99.263100
 20
219.911880
 40
2.750000
  0
LINE
  8
LC-005-002-RND-0
 62
     2
  6
DASHDOT
 10
-59.263103
 20
223.808365
 11
-59.263103
 21
215.782700
  0
CIRCLE
  8
LC-003-002-----0
 62
     1
  6
CONTINUOUS
 10
-59.263103
 20
219.911880
 40
2.750000
  0
LINE
  8
LC-008-003-----0
 62
     2
  6
DASHED
 10
-87.263100
 20
227.911880
 11
-87.263100
 21
211.911880
  0
LINE
  8
LC-008-003-----0
 62
     2
  6
DASHED
 10
-71.263100
 20
227.911880
 11
-71.263100
 21
211.911880
  0
LINE
  8
LC-003-002-----0
 62
     1
  6
CONTINUOUS
 10
-92.263100
 20
226.911880
 11
-92.263100
 21
212.911880
  0
LINE
  8
LC-003-002-----0
 62
     1
  6
CONTINUOUS
 10
-66.263100
 20
226.911880
 11
-66.263100
 21
212.911880
  0
LINE
  8
LC-008-003-----0
 62
     2
  6
DASHED
 10
-92.263100
 20
223.911880
 11
-87.763100
 21
223.911880
  0
LINE
  8
LC-008-003-----0
 62
     2
  6
DASHED
 10
-92.263100
 20
215.911880
 11
-87.763100
 21
215.911880
  0
LINE
  8
LC-008-003-----0
 62
     2
  6
DASHED
 10
-87.763100
 20
222.311874
 11
-79.763100
 21
222.311874
  0
LINE
  8
LC-008-003-----0
 62
     2
  6
DASHED
 10
-87.763100
 20
217.511887
 11
-79.763100
 21
217.511887
  0
LINE
  8
LC-008-003-----0
 62
     2
  6
DASHED
 10
-87.763100
 20
223.911880
 11
-87.763100
 21
215.911880
  0
LINE
  8
LC-008-003-----0
 62
     2
  6
DASHED
 10
-72.026962
 20
221.911880
 11
-69.263100
 21
221.911880
  0
LINE
  8
LC-008-003-----0
 62
     2
  6
DASHED
 10
-72.026962
 20
217.911880
 11
-69.263100
 21
217.911880
  0
LINE
  8
LC-008-003-----0
 62
     2
  6
DASHED
 10
-71.738289
 20
221.411880
 11
-66.263100
 21
221.411880
  0
LINE
  8
LC-008-003-----0
 62
     2
  6
DASHED
 10
-71.764267
 20
218.411880
 11
-66.263100
 21
218.411880
  0
LINE
  8
LC-008-003-----0
 62
     2
  6
DASHED
 10
-69.263100
 20
221.911880
 11
-69.263100
 21
217.911880
  0
ARC
  8
LC-003-002-----0
 62
     1
  6
CONTINUOUS
 10
-67.263100
 20
226.911880
 40
1.000000
 50
0.000000
 51
90.000003
  0
ARC
  8
LC-003-002-----0
 62
     1
  6
CONTINUOUS
 10
-67.263100
 20
212.911880
 40
1.000000
 50
269.999997
 51
0.000000
  0
ARC
  8
LC-003-002-----0
 62
     1
  6
CONTINUOUS
 10
-91.263100
 20
212.911880
 40
1.000000
 50
180.000009
 51
269.999997
  0
ARC
  8
LC-003-002-----0
 62
     1
  6
CONTINUOUS
 10
-91.263100
 20
226.911880
 40
1.000000
 50
90.000003
 51
180.000009
  0
ARC
  8
LC-003-002-----0
 62
     1
  6
CONTINUOUS
 10
-103.263100
 20
226.911880
 40
1.000000
 50
90.000003
 51
180.000009
  0
ARC
  8
LC-003-002-----0
 62
     1
  6
CONTINUOUS
 10
-103.263100
 20
212.911880
 40
1.000000
 50
180.000009
 51
269.999997
  0
ARC
  8
LC-003-002-----0
 62
     1
  6
CONTINUOUS
 10
-55.263103
 20
226.911880
 40
1.000000
 50
0.000000
 51
90.000003
  0
ARC
  8
LC-003-002-----0
 62
     1
  6
CONTINUOUS
 10
-55.263103
 20
212.911880
 40
1.000000
 50
269.999997
 51
0.000000
  0
LINE
  8
LC-003-002-----0
 62
     1
  6
CONTINUOUS
 10
-78.763100
 20
306.073364
 11
-67.263100
 21
306.073364
  0
LINE
  8
LC-008-003-----0
 62
     2
  6
DASHED
 10
-78.763100
 20
217.911880
 11
-72.026962
 21
217.911880
  0
LINE
  8
LC-003-002-----0
 62
     1
  6
CONTINUOUS
 10
-79.763100
 20
217.911880
 11
-78.763100
 21
217.911880
  0
LINE
  8
LC-008-003-----0
 62
     2
  6
DASHED
 10
-82.263100
 20
217.911880
 11
-79.763100
 21
217.911880
  0
LINE
  8
LC-007-004-----0
 62
     2
  6
CONTINUOUS
 10
-78.763100
 20
218.366882
 11
-79.763100
 21
218.366882
  0
LINE
  8
LC-008-003-----0
 62
     2
  6
DASHED
 10
-82.263100
 20
218.366882
 11
-85.664268
 21
218.366882
  0
LINE
  8
LC-007-004-----0
 62
     2
  6
CONTINUOUS
 10
-78.763100
 20
221.456879
 11
-79.763100
 21
221.456879
  0
LINE
  8
LC-008-003-----0
 62
     2
  6
DASHED
 10
-82.263100
 20
221.456879
 11
-85.664268
 21
221.456879
  0
LINE
  8
LC-008-003-----0
 62
     2
  6
DASHED
 10
-91.064270
 20
223.411880
 11
-87.764267
 21
223.411880
  0
LINE
  8
LC-008-003-----0
 62
     2
  6
DASHED
 10
-71.764267
 20
218.366882
 11
-82.263100
 21
218.366882
  0
LINE
  8
LC-008-003-----0
 62
     2
  6
DASHED
 10
-72.026962
 20
221.911880
 11
-72.026962
 21
217.911880
  0
LINE
  8
LC-008-003-----0
 62
     2
  6
DASHED
 10
-71.764267
 20
221.456879
 11
-71.764267
 21
218.366882
  0
LINE
  8
LC-008-003-----0
 62
     2
  6
DASHED
 10
-85.664268
 20
221.911880
 11
-85.664268
 21
217.911880
  0
LINE
  8
LC-008-003-----0
 62
     2
  6
DASHED
 10
-79.763100
 20
303.073364
 11
-78.763100
 21
303.073364
  0
LINE
  8
LC-008-003-----0
 62
     2
  6
DASHED
 10
-82.263100
 20
303.073364
 11
-72.026962
 21
303.073364
  0
LINE
  8
LC-003-002-----0
 62
     1
  6
CONTINUOUS
 10
-78.763100
 20
303.073364
 11
-79.763100
 21
303.073364
  0
LINE
  8
LC-008-003-----0
 62
     2
  6
DASHED
 10
-78.763100
 20
299.073364
 11
-72.026962
 21
299.073364
  0
LINE
  8
LC-003-002-----0
 62
     1
  6
CONTINUOUS
 10
-79.763100
 20
299.073364
 11
-78.763100
 21
299.073364
  0
LINE
  8
LC-008-003-----0
 62
     2
  6
DASHED
 10
-82.263100
 20
299.073364
 11
-79.763100
 21
299.073364
  0
LINE
  8
LC-007-004-----0
 62
     2
  6
CONTINUOUS
 10
-78.763100
 20
299.528381
 11
-79.763100
 21
299.528381
  0
LINE
  8
LC-008-003-----0
 62
     2
  6
DASHED
 10
-82.263100
 20
299.528381
 11
-85.664268
 21
299.528381
  0
LINE
  8
LC-007-004-----0
 62
     2
  6
CONTINUOUS
 10
-78.763100
 20
302.618378
 11
-79.763100
 21
302.618378
  0
LINE
  8
LC-008-003-----0
 62
     2
  6
DASHED
 10
-82.263100
 20
302.618378
 11
-85.664268
 21
302.618378
  0
LINE
  8
LC-008-003-----0
 62
     2
  6
DASHED
 10
-91.064270
 20
304.573364
 11
-87.764267
 21
304.573364
  0
LINE
  8
LC-008-003-----0
 62
     2
  6
DASHED
 10
-71.764267
 20
299.528381
 11
-82.263100
 21
299.528381
  0
LINE
  8
LC-008-003-----0
 62
     2
  6
DASHED
 10
-71.764267
 20
302.618378
 11
-71.764267
 21
299.528381
  0
LINE
  8
LC-008-003-----0
 62
     2
  6
DASHED
 10
-85.664268
 20
303.073364
 11
-85.664268
 21
299.073364
  0
ARC
  8
LC-008-003-----0
 62
     2
  6
DASHED
 10
-91.064270
 20
303.873383
 40
0.700000
 50
90.000003
 51
180.000009
  0
LINE
  8
LC-008-003-----0
 62
     2
  6
DASHED
 10
-91.764267
 20
298.273376
 11
-91.764267
 21
303.873383
  0
LINE
  8
LC-008-003-----0
 62
     2
  6
DASHED
 10
-91.064270
 20
297.573364
 11
-87.764267
 21
297.573364
  0
ARC
  8
LC-008-003-----0
 62
     2
  6
DASHED
 10
-91.064270
 20
298.273376
 40
0.700000
 50
180.000009
 51
269.999997
  0
LINE
  8
LC-008-003-----0
 62
     2
  6
DASHED
 10
-72.026962
 20
299.073364
 11
-71.764267
 21
299.528381
  0
LINE
  8
LC-008-003-----0
 62
     2
  6
DASHED
 10
-72.026962
 20
303.073364
 11
-71.764267
 21
302.618378
  0
LINE
  8
LC-008-003-----0
 62
     2
  6
DASHED
 10
-87.764267
 20
303.073364
 11
-82.263100
 21
303.073364
  0
LINE
  8
LC-008-003-----0
 62
     2
  6
DASHED
 10
-87.764267
 20
299.073364
 11
-82.263100
 21
299.073364
  0
LINE
  8
LC-008-003-----0
 62
     2
  6
DASHED
 10
-71.764267
 20
302.618378
 11
-82.263100
 21
302.618378
  0
LINE
  8
LC-008-003-----0
 62
     2
  6
DASHED
 10
-72.026962
 20
303.073364
 11
-72.026962
 21
299.073364
  0
ARC
  8
LC-008-003-----0
 62
     2
  6
DASHED
 10
-91.064270
 20
222.711884
 40
0.700000
 50
90.000003
 51
180.000009
  0
LINE
  8
LC-008-003-----0
 62
     2
  6
DASHED
 10
-91.764267
 20
217.111877
 11
-91.764267
 21
222.711884
  0
LINE
  8
LC-008-003-----0
 62
     2
  6
DASHED
 10
-91.064270
 20
216.411880
 11
-87.764267
 21
216.411880
  0
ARC
  8
LC-008-003-----0
 62
     2
  6
DASHED
 10
-91.064270
 20
217.111877
 40
0.700000
 50
180.000009
 51
269.999997
  0
LINE
  8
LC-008-003-----0
 62
     2
  6
DASHED
 10
-72.026962
 20
217.911880
 11
-71.764267
 21
218.366882
  0
LINE
  8
LC-008-003-----0
 62
     2
  6
DASHED
 10
-72.026962
 20
221.911880
 11
-71.764267
 21
221.456879
  0
LINE
  8
LC-008-003-----0
 62
     2
  6
DASHED
 10
-87.764267
 20
221.911880
 11
-82.263100
 21
221.911880
  0
LINE
  8
LC-008-003-----0
 62
     2
  6
DASHED
 10
-87.764267
 20
217.911880
 11
-82.263100
 21
217.911880
  0
LINE
  8
LC-008-003-----0
 62
     2
  6
DASHED
 10
-71.764267
 20
221.456879
 11
-82.263100
 21
221.456879
  0
ENDSEC
  0
EOF
