  0
SECTION
  2
HEADER
  9
$LIMMIN
 10
377.522156
 20
402.367371
  9
$LIMMAX
 10
619.153076
 20
596.379578
  9
$EXTMIN
 10
377.522156
 20
402.367371
  9
$EXTMAX
 10
619.153076
 20
596.379578
  0
ENDSEC
  0
SECTION
  2
TABLES
  0
TABLE
  2
LTYPE
 70
     3
  0
LTYPE
  2
CONTINUOUS
 70
    64
  3
Ausgezogene Linie
 72
    65
 73
     0
 40
0.0
  0
LTYPE
  2
DASHED
 70
    64
  3
__ __ __ __ __ __ __ __ __ __ __ __ __ __ __
 72
    65
 73
     2
 40
0.75
 49
0.5
 49
-0.25
  0
LTYPE
  2
DASHDOT
 70
    64
  3
__ . __ . __ . __ . __ . __ . __ . __ . __ . __
 72
    65
 73
     4
 40
1.0
 49
0.5
 49
-0.25
 49
0.0
 49
-0.25
  0
ENDTAB
  0
TABLE
  2
LAYER
 70
     4
  0
LAYER
  2
LC-003-002-----0
 70
    64
 62
     7
  6
CONTINUOUS
  0
LAYER
  2
LC-005-002-RND-0
 70
    64
 62
     7
  6
CONTINUOUS
  0
LAYER
  2
LC-008-003-----0
 70
    64
 62
     7
  6
CONTINUOUS
  0
LAYER
  2
LC-007-004-----0
 70
    64
 62
     7
  6
CONTINUOUS
  0
ENDTAB
  0
TABLE
  2
STYLE
 70
     1
  0
STYLE
  2
TXT8
 70
    64
 40
0.0
 41
1.0
 50
0.0
 71
     0
 42
3.500000
  3
TXT8
  4

  0
ENDTAB
  0
ENDSEC
  0
SECTION
  2
BLOCKS
  0
ENDSEC
  0
SECTION
  2
ENTITIES
  0
LINE
  8
LC-003-002-----0
 62
     1
  6
CONTINUOUS
 10
575.789124
 20
490.461029
 11
615.789124
 21
490.461029
  0
LINE
  8
LC-003-002-----0
 62
     1
  6
CONTINUOUS
 10
615.789124
 20
490.461029
 11
615.789124
 21
589.460999
  0
LINE
  8
LC-003-002-----0
 62
     1
  6
CONTINUOUS
 10
576.789124
 20
590.460999
 11
614.789124
 21
590.460999
  0
LINE
  8
LC-008-003-----0
 62
     2
  6
DASHED
 10
575.789124
 20
575.441040
 11
615.789124
 21
575.441040
  0
LINE
  8
LC-005-002-RND-0
 62
     2
  6
DASHDOT
 10
570.848083
 20
550.460999
 11
619.153076
 21
550.460999
  0
LINE
  8
LC-008-003-----0
 62
     2
  6
DASHED
 10
414.361938
 20
585.960999
 11
444.363098
 21
585.960999
  0
LINE
  8
LC-003-002-----0
 62
     1
  6
CONTINUOUS
 10
444.363098
 20
585.960999
 11
446.363098
 21
585.960999
  0
LINE
  8
LC-003-002-----0
 62
     1
  6
CONTINUOUS
 10
576.789124
 20
504.461029
 11
614.789124
 21
504.461029
  0
LINE
  8
LC-003-002-----0
 62
     1
  6
CONTINUOUS
 10
380.363098
 20
490.461029
 11
510.363098
 21
490.461029
  0
LINE
  8
LC-003-002-----0
 62
     1
  6
CONTINUOUS
 10
381.363098
 20
504.461029
 11
404.363098
 21
504.461029
  0
LINE
  8
LC-003-002-----0
 62
     1
  6
CONTINUOUS
 10
406.363098
 20
590.460999
 11
444.363098
 21
590.460999
  0
LINE
  8
LC-005-002-RND-0
 62
     2
  6
DASHDOT
 10
445.363098
 20
487.246094
 11
445.363098
 21
596.379578
  0
LINE
  8
LC-003-002-----0
 62
     1
  6
CONTINUOUS
 10
485.363098
 20
505.461029
 11
485.363098
 21
589.460999
  0
LINE
  8
LC-003-002-----0
 62
     1
  6
CONTINUOUS
 10
405.363098
 20
505.461029
 11
405.363098
 21
589.460999
  0
LINE
  8
LC-005-002-RND-0
 62
     2
  6
DASHDOT
 10
499.363098
 20
487.246094
 11
499.363098
 21
507.610718
  0
LINE
  8
LC-005-002-RND-0
 62
     2
  6
DASHDOT
 10
391.363098
 20
487.246094
 11
391.363098
 21
507.610718
  0
LINE
  8
LC-003-002-----0
 62
     1
  6
CONTINUOUS
 10
510.363098
 20
490.461029
 11
510.363098
 21
503.461029
  0
LINE
  8
LC-003-002-----0
 62
     1
  6
CONTINUOUS
 10
380.363098
 20
490.461029
 11
380.363098
 21
503.461029
  0
LINE
  8
LC-003-002-----0
 62
     1
  6
CONTINUOUS
 10
575.789124
 20
490.461029
 11
575.789124
 21
589.460999
  0
LINE
  8
LC-003-002-----0
 62
     1
  6
CONTINUOUS
 10
486.363098
 20
504.461029
 11
509.363098
 21
504.461029
  0
LINE
  8
LC-008-003-----0
 62
     2
  6
DASHED
 10
385.863098
 20
504.461029
 11
385.863098
 21
490.461029
  0
LINE
  8
LC-008-003-----0
 62
     2
  6
DASHED
 10
396.863098
 20
504.461029
 11
396.863098
 21
490.461029
  0
LINE
  8
LC-008-003-----0
 62
     2
  6
DASHED
 10
493.863098
 20
504.461029
 11
493.863098
 21
490.461029
  0
LINE
  8
LC-008-003-----0
 62
     2
  6
DASHED
 10
504.863098
 20
504.461029
 11
504.863098
 21
490.461029
  0
LINE
  8
LC-003-002-----0
 62
     1
  6
CONTINUOUS
 10
446.363098
 20
575.441040
 11
446.363098
 21
590.460999
  0
LINE
  8
LC-003-002-----0
 62
     1
  6
CONTINUOUS
 10
444.363098
 20
575.441040
 11
444.363098
 21
590.460999
  0
ARC
  8
LC-003-002-----0
 62
     1
  6
CONTINUOUS
 10
445.363098
 20
550.460999
 40
25.000000
 50
92.292446
 51
87.707559
  0
LINE
  8
LC-003-002-----0
 62
     1
  6
CONTINUOUS
 10
446.363098
 20
590.460999
 11
484.363098
 21
590.460999
  0
ARC
  8
LC-003-002-----0
 62
     1
  6
CONTINUOUS
 10
381.363098
 20
503.461029
 40
1.000000
 50
90.000003
 51
180.000009
  0
ARC
  8
LC-003-002-----0
 62
     1
  6
CONTINUOUS
 10
404.363098
 20
505.461029
 40
1.000000
 50
269.999997
 51
0.000000
  0
ARC
  8
LC-003-002-----0
 62
     1
  6
CONTINUOUS
 10
406.363098
 20
589.460999
 40
1.000000
 50
90.000003
 51
180.000009
  0
ARC
  8
LC-003-002-----0
 62
     1
  6
CONTINUOUS
 10
484.363098
 20
589.460999
 40
1.000000
 50
0.000000
 51
90.000003
  0
ARC
  8
LC-003-002-----0
 62
     1
  6
CONTINUOUS
 10
486.363098
 20
505.461029
 40
1.000000
 50
180.000009
 51
269.999997
  0
ARC
  8
LC-003-002-----0
 62
     1
  6
CONTINUOUS
 10
509.363098
 20
503.461029
 40
1.000000
 50
0.000000
 51
90.000003
  0
LINE
  8
LC-008-003-----0
 62
     2
  6
DASHED
 10
414.363098
 20
589.460999
 11
414.363098
 21
574.460999
  0
LINE
  8
LC-008-003-----0
 62
     2
  6
DASHED
 10
414.363098
 20
586.460999
 11
444.363098
 21
586.460999
  0
LINE
  8
LC-008-003-----0
 62
     2
  6
DASHED
 10
414.363098
 20
577.460999
 11
444.363098
 21
577.460999
  0
LINE
  8
LC-008-003-----0
 62
     2
  6
DASHED
 10
405.363098
 20
589.460999
 11
414.363098
 21
589.460999
  0
LINE
  8
LC-008-003-----0
 62
     2
  6
DASHED
 10
405.363098
 20
574.460999
 11
414.363098
 21
574.460999
  0
LINE
  8
LC-008-003-----0
 62
     2
  6
DASHED
 10
458.892853
 20
585.960999
 11
477.363098
 21
585.960999
  0
LINE
  8
LC-008-003-----0
 62
     2
  6
DASHED
 10
458.892853
 20
577.960999
 11
477.363098
 21
577.960999
  0
LINE
  8
LC-008-003-----0
 62
     2
  6
DASHED
 10
459.181519
 20
578.460999
 11
485.363098
 21
578.460999
  0
LINE
  8
LC-008-003-----0
 62
     2
  6
DASHED
 10
459.181519
 20
585.460999
 11
485.363098
 21
585.460999
  0
LINE
  8
LC-003-002-----0
 62
     1
  6
CONTINUOUS
 10
380.363098
 20
444.138580
 11
380.363098
 21
406.138580
  0
LINE
  8
LC-005-002-RND-0
 62
     2
  6
DASHDOT
 10
403.809296
 20
581.960999
 11
486.593201
 21
581.960999
  0
LINE
  8
LC-008-003-----0
 62
     2
  6
DASHED
 10
477.363098
 20
577.960999
 11
477.363098
 21
585.960999
  0
LINE
  8
LC-003-002-----0
 62
     1
  6
CONTINUOUS
 10
381.363098
 20
405.138580
 11
509.363098
 21
405.138580
  0
LINE
  8
LC-003-002-----0
 62
     1
  6
CONTINUOUS
 10
510.363098
 20
444.138580
 11
510.363098
 21
406.138580
  0
LINE
  8
LC-003-002-----0
 62
     1
  6
CONTINUOUS
 10
381.363098
 20
445.138580
 11
509.363098
 21
445.138580
  0
LINE
  8
LC-005-002-RND-0
 62
     2
  6
DASHDOT
 10
377.522156
 20
425.138580
 11
512.470276
 21
425.138580
  0
LINE
  8
LC-005-002-RND-0
 62
     2
  6
DASHDOT
 10
445.363098
 20
448.357086
 11
445.363098
 21
402.367371
  0
LINE
  8
LC-005-002-RND-0
 62
     2
  6
DASHDOT
 10
391.363098
 20
432.630066
 11
391.363098
 21
417.666412
  0
CIRCLE
  8
LC-003-002-----0
 62
     1
  6
CONTINUOUS
 10
391.363098
 20
425.138580
 40
5.500000
  0
CIRCLE
  8
LC-003-002-----0
 62
     1
  6
CONTINUOUS
 10
499.363098
 20
425.138580
 40
5.500000
  0
LINE
  8
LC-003-002-----0
 62
     1
  6
CONTINUOUS
 10
446.363098
 20
445.138580
 11
446.363098
 21
405.138580
  0
LINE
  8
LC-003-002-----0
 62
     1
  6
CONTINUOUS
 10
444.363098
 20
445.138580
 11
444.363098
 21
405.138580
  0
LINE
  8
LC-003-002-----0
 62
     1
  6
CONTINUOUS
 10
405.363098
 20
444.138580
 11
405.363098
 21
406.138580
  0
LINE
  8
LC-003-002-----0
 62
     1
  6
CONTINUOUS
 10
485.363098
 20
444.138580
 11
485.363098
 21
406.138580
  0
LINE
  8
LC-008-003-----0
 62
     2
  6
DASHED
 10
420.363098
 20
445.138580
 11
420.363098
 21
405.138580
  0
LINE
  8
LC-008-003-----0
 62
     2
  6
DASHED
 10
470.363098
 20
445.138580
 11
470.363098
 21
405.138580
  0
LINE
  8
LC-005-002-RND-0
 62
     2
  6
DASHDOT
 10
499.363098
 20
432.630066
 11
499.363098
 21
417.666412
  0
LINE
  8
LC-008-003-----0
 62
     2
  6
DASHED
 10
575.789124
 20
525.460999
 11
615.789124
 21
525.460999
  0
LINE
  8
LC-005-002-RND-0
 62
     2
  6
DASHDOT
 10
595.789124
 20
487.246094
 11
595.789124
 21
507.610718
  0
LINE
  8
LC-008-003-----0
 62
     2
  6
DASHED
 10
590.289124
 20
504.461029
 11
590.289124
 21
490.461029
  0
LINE
  8
LC-008-003-----0
 62
     2
  6
DASHED
 10
601.289124
 20
504.461029
 11
601.289124
 21
490.461029
  0
LINE
  8
LC-005-002-RND-0
 62
     2
  6
DASHDOT
 10
595.789124
 20
590.185852
 11
595.789124
 21
573.179443
  0
LINE
  8
LC-005-002-RND-0
 62
     2
  6
DASHDOT
 10
586.844177
 20
581.960999
 11
604.672729
 21
581.960999
  0
CIRCLE
  8
LC-003-002-----0
 62
     1
  6
CONTINUOUS
 10
595.789124
 20
581.960999
 40
7.500000
  0
ARC
  8
LC-003-002-----0
 62
     1
  6
CONTINUOUS
 10
381.363098
 20
444.138580
 40
1.000000
 50
90.000003
 51
180.000009
  0
ARC
  8
LC-003-002-----0
 62
     1
  6
CONTINUOUS
 10
381.363098
 20
406.138580
 40
1.000000
 50
180.000009
 51
269.999997
  0
ARC
  8
LC-003-002-----0
 62
     1
  6
CONTINUOUS
 10
509.363098
 20
406.138580
 40
1.000000
 50
269.999997
 51
0.000000
  0
ARC
  8
LC-003-002-----0
 62
     1
  6
CONTINUOUS
 10
509.363098
 20
444.138580
 40
1.000000
 50
0.000000
 51
90.000003
  0
ARC
  8
LC-003-002-----0
 62
     1
  6
CONTINUOUS
 10
576.789124
 20
589.460999
 40
1.000000
 50
90.000003
 51
180.000009
  0
ARC
  8
LC-003-002-----0
 62
     1
  6
CONTINUOUS
 10
614.789124
 20
589.460999
 40
1.000000
 50
0.000000
 51
90.000003
  0
ARC
  8
LC-003-002-----0
 62
     1
  6
CONTINUOUS
 10
614.789124
 20
503.461029
 40
1.000000
 50
0.000000
 51
90.000003
  0
ARC
  8
LC-003-002-----0
 62
     1
  6
CONTINUOUS
 10
576.789124
 20
503.461029
 40
1.000000
 50
90.000003
 51
180.000009
  0
ARC
  8
LC-003-002-----0
 62
     1
  6
CONTINUOUS
 10
406.363098
 20
444.138580
 40
1.000000
 50
90.000003
 51
180.000009
  0
ARC
  8
LC-003-002-----0
 62
     1
  6
CONTINUOUS
 10
406.363098
 20
406.138580
 40
1.000000
 50
180.000009
 51
269.999997
  0
ARC
  8
LC-003-002-----0
 62
     1
  6
CONTINUOUS
 10
484.363098
 20
406.138580
 40
1.000000
 50
269.999997
 51
0.000000
  0
ARC
  8
LC-003-002-----0
 62
     1
  6
CONTINUOUS
 10
484.363098
 20
444.138580
 40
1.000000
 50
0.000000
 51
90.000003
  0
LINE
  8
LC-008-003-----0
 62
     2
  6
DASHED
 10
414.363098
 20
432.638580
 11
414.363098
 21
417.638580
  0
LINE
  8
LC-008-003-----0
 62
     2
  6
DASHED
 10
414.363098
 20
429.638580
 11
444.363098
 21
429.638580
  0
LINE
  8
LC-008-003-----0
 62
     2
  6
DASHED
 10
414.363098
 20
420.638580
 11
444.363098
 21
420.638580
  0
LINE
  8
LC-008-003-----0
 62
     2
  6
DASHED
 10
405.363098
 20
432.638580
 11
414.363098
 21
432.638580
  0
LINE
  8
LC-008-003-----0
 62
     2
  6
DASHED
 10
405.363098
 20
417.638580
 11
414.363098
 21
417.638580
  0
LINE
  8
LC-008-003-----0
 62
     2
  6
DASHED
 10
458.892853
 20
429.138580
 11
477.363098
 21
429.138580
  0
LINE
  8
LC-008-003-----0
 62
     2
  6
DASHED
 10
458.892853
 20
421.138580
 11
477.363098
 21
421.138580
  0
LINE
  8
LC-008-003-----0
 62
     2
  6
DASHED
 10
459.181519
 20
421.638580
 11
485.363098
 21
421.638580
  0
LINE
  8
LC-008-003-----0
 62
     2
  6
DASHED
 10
459.181519
 20
428.638580
 11
485.363098
 21
428.638580
  0
LINE
  8
LC-008-003-----0
 62
     2
  6
DASHED
 10
477.363098
 20
421.138580
 11
477.363098
 21
429.138580
  0
LINE
  8
LC-005-002-RND-0
 62
     2
  6
DASHDOT
 10
417.297913
 20
550.460999
 11
473.007935
 21
550.460999
  0
LINE
  8
LC-008-003-----0
 62
     2
  6
DASHED
 10
446.363098
 20
585.960999
 11
458.892853
 21
585.960999
  0
LINE
  8
LC-008-003-----0
 62
     2
  6
DASHED
 10
414.361938
 20
577.960999
 11
444.363098
 21
577.960999
  0
LINE
  8
LC-003-002-----0
 62
     1
  6
CONTINUOUS
 10
444.363098
 20
577.960999
 11
446.363098
 21
577.960999
  0
LINE
  8
LC-008-003-----0
 62
     2
  6
DASHED
 10
446.363098
 20
577.960999
 11
458.892853
 21
577.960999
  0
LINE
  8
LC-008-003-----0
 62
     2
  6
DASHED
 10
459.361938
 20
585.148499
 11
446.363098
 21
585.148499
  0
LINE
  8
LC-007-004-----0
 62
     2
  6
CONTINUOUS
 10
446.363098
 20
585.148499
 11
444.363098
 21
585.148499
  0
LINE
  8
LC-008-003-----0
 62
     2
  6
DASHED
 10
444.363098
 20
585.148499
 11
426.361938
 21
585.148499
  0
LINE
  8
LC-008-003-----0
 62
     2
  6
DASHED
 10
459.361938
 20
578.773499
 11
446.363098
 21
578.773499
  0
LINE
  8
LC-007-004-----0
 62
     2
  6
CONTINUOUS
 10
446.363098
 20
578.773499
 11
444.363098
 21
578.773499
  0
LINE
  8
LC-008-003-----0
 62
     2
  6
DASHED
 10
444.363098
 20
578.773499
 11
426.361938
 21
578.773499
  0
LINE
  8
LC-008-003-----0
 62
     2
  6
DASHED
 10
414.361938
 20
429.138580
 11
444.363098
 21
429.138580
  0
LINE
  8
LC-003-002-----0
 62
     1
  6
CONTINUOUS
 10
444.363098
 20
429.138580
 11
446.363098
 21
429.138580
  0
LINE
  8
LC-008-003-----0
 62
     2
  6
DASHED
 10
446.363098
 20
429.138580
 11
458.892853
 21
429.138580
  0
LINE
  8
LC-008-003-----0
 62
     2
  6
DASHED
 10
414.361938
 20
421.138580
 11
444.363098
 21
421.138580
  0
LINE
  8
LC-003-002-----0
 62
     1
  6
CONTINUOUS
 10
444.363098
 20
421.138580
 11
446.363098
 21
421.138580
  0
LINE
  8
LC-008-003-----0
 62
     2
  6
DASHED
 10
446.363098
 20
421.138580
 11
458.892853
 21
421.138580
  0
LINE
  8
LC-008-003-----0
 62
     2
  6
DASHED
 10
459.361938
 20
428.326080
 11
446.363098
 21
428.326080
  0
LINE
  8
LC-007-004-----0
 62
     2
  6
CONTINUOUS
 10
446.363098
 20
428.326080
 11
444.363098
 21
428.326080
  0
LINE
  8
LC-008-003-----0
 62
     2
  6
DASHED
 10
444.363098
 20
428.326080
 11
426.361938
 21
428.326080
  0
LINE
  8
LC-007-004-----0
 62
     2
  6
CONTINUOUS
 10
446.363098
 20
421.951080
 11
444.363098
 21
421.951080
  0
LINE
  8
LC-008-003-----0
 62
     2
  6
DASHED
 10
444.363098
 20
421.951080
 11
426.361938
 21
421.951080
  0
LINE
  8
LC-008-003-----0
 62
     2
  6
DASHED
 10
414.361938
 20
431.638580
 11
414.361938
 21
418.638580
  0
LINE
  8
LC-008-003-----0
 62
     2
  6
DASHED
 10
407.661926
 20
431.638580
 11
414.361938
 21
431.638580
  0
ARC
  8
LC-008-003-----0
 62
     2
  6
DASHED
 10
407.661926
 20
430.338562
 40
1.300000
 50
90.000003
 51
180.000009
  0
LINE
  8
LC-008-003-----0
 62
     2
  6
DASHED
 10
406.361938
 20
419.938568
 11
406.361938
 21
430.338562
  0
LINE
  8
LC-008-003-----0
 62
     2
  6
DASHED
 10
407.661926
 20
418.638580
 11
414.361938
 21
418.638580
  0
ARC
  8
LC-008-003-----0
 62
     2
  6
DASHED
 10
407.661926
 20
419.938568
 40
1.300000
 50
180.000009
 51
269.999997
  0
LINE
  8
LC-008-003-----0
 62
     2
  6
DASHED
 10
458.892853
 20
421.138580
 11
459.361938
 21
421.951080
  0
LINE
  8
LC-008-003-----0
 62
     2
  6
DASHED
 10
458.892853
 20
429.138580
 11
459.361938
 21
428.326080
  0
LINE
  8
LC-008-003-----0
 62
     2
  6
DASHED
 10
459.361938
 20
421.951080
 11
446.363098
 21
421.951080
  0
LINE
  8
LC-008-003-----0
 62
     2
  6
DASHED
 10
414.361938
 20
588.460999
 11
414.361938
 21
575.460999
  0
LINE
  8
LC-008-003-----0
 62
     2
  6
DASHED
 10
407.661926
 20
588.460999
 11
414.361938
 21
588.460999
  0
ARC
  8
LC-008-003-----0
 62
     2
  6
DASHED
 10
407.661926
 20
587.161011
 40
1.300000
 50
90.000003
 51
180.000009
  0
LINE
  8
LC-008-003-----0
 62
     2
  6
DASHED
 10
406.361938
 20
576.761047
 11
406.361938
 21
587.161011
  0
LINE
  8
LC-008-003-----0
 62
     2
  6
DASHED
 10
407.661926
 20
575.460999
 11
414.361938
 21
575.460999
  0
ARC
  8
LC-008-003-----0
 62
     2
  6
DASHED
 10
407.661926
 20
576.761047
 40
1.300000
 50
180.000009
 51
269.999997
  0
LINE
  8
LC-008-003-----0
 62
     2
  6
DASHED
 10
458.892853
 20
577.960999
 11
459.361938
 21
578.773499
  0
LINE
  8
LC-008-003-----0
 62
     2
  6
DASHED
 10
458.892853
 20
585.960999
 11
459.361938
 21
585.148499
  0
LINE
  8
LC-008-003-----0
 62
     2
  6
DASHED
 10
426.361938
 20
429.138580
 11
426.361938
 21
421.138580
  0
LINE
  8
LC-008-003-----0
 62
     2
  6
DASHED
 10
458.892853
 20
429.138580
 11
458.892853
 21
421.138580
  0
LINE
  8
LC-008-003-----0
 62
     2
  6
DASHED
 10
459.361938
 20
428.326080
 11
459.361938
 21
421.951080
  0
LINE
  8
LC-008-003-----0
 62
     2
  6
DASHED
 10
459.361938
 20
585.148499
 11
459.361938
 21
578.773499
  0
LINE
  8
LC-008-003-----0
 62
     2
  6
DASHED
 10
458.892853
 20
585.960999
 11
458.892853
 21
577.960999
  0
LINE
  8
LC-008-003-----0
 62
     2
  6
DASHED
 10
426.361938
 20
585.960999
 11
426.361938
 21
577.960999
  0
ENDSEC
  0
EOF
