  0
SECTION
  2
HEADER
  9
$LIMMIN
 10
715.219666
 20
377.158722
  9
$LIMMAX
 10
980.837158
 20
617.935669
  9
$EXTMIN
 10
715.219666
 20
377.158722
  9
$EXTMAX
 10
980.837158
 20
617.935669
  0
ENDSEC
  0
SECTION
  2
TABLES
  0
TABLE
  2
LTYPE
 70
     3
  0
LTYPE
  2
CONTINUOUS
 70
    64
  3
Ausgezogene Linie
 72
    65
 73
     0
 40
0.0
  0
LTYPE
  2
DASHED
 70
    64
  3
__ __ __ __ __ __ __ __ __ __ __ __ __ __ __
 72
    65
 73
     2
 40
0.75
 49
0.5
 49
-0.25
  0
LTYPE
  2
DASHDOT
 70
    64
  3
__ . __ . __ . __ . __ . __ . __ . __ . __ . __
 72
    65
 73
     4
 40
1.0
 49
0.5
 49
-0.25
 49
0.0
 49
-0.25
  0
ENDTAB
  0
TABLE
  2
LAYER
 70
     4
  0
LAYER
  2
LC-003-002-----0
 70
    64
 62
     7
  6
CONTINUOUS
  0
LAYER
  2
LC-005-002-RND-0
 70
    64
 62
     7
  6
CONTINUOUS
  0
LAYER
  2
LC-008-003-----0
 70
    64
 62
     7
  6
CONTINUOUS
  0
LAYER
  2
LC-007-004-----0
 70
    64
 62
     7
  6
CONTINUOUS
  0
ENDTAB
  0
TABLE
  2
STYLE
 70
     1
  0
STYLE
  2
TXT8
 70
    64
 40
0.0
 41
1.0
 50
0.0
 71
     0
 42
3.500000
  3
TXT8
  4

  0
ENDTAB
  0
ENDSEC
  0
SECTION
  2
BLOCKS
  0
ENDSEC
  0
SECTION
  2
ENTITIES
  0
LINE
  8
LC-008-003-----0
 62
     2
  6
DASHED
 10
760.105774
 20
608.914429
 11
798.106934
 21
608.914429
  0
LINE
  8
LC-003-002-----0
 62
     1
  6
CONTINUOUS
 10
798.106934
 20
608.914429
 11
800.106934
 21
608.914429
  0
LINE
  8
LC-003-002-----0
 62
     1
  6
CONTINUOUS
 10
719.106934
 20
489.914429
 11
879.106934
 21
489.914429
  0
LINE
  8
LC-003-002-----0
 62
     1
  6
CONTINUOUS
 10
720.106934
 20
504.914429
 11
748.106934
 21
504.914429
  0
LINE
  8
LC-005-002-RND-0
 62
     2
  6
DASHDOT
 10
764.127319
 20
564.914429
 11
835.101379
 21
564.914429
  0
LINE
  8
LC-003-002-----0
 62
     1
  6
CONTINUOUS
 10
750.106934
 20
613.914429
 11
798.106934
 21
613.914429
  0
LINE
  8
LC-003-002-----0
 62
     1
  6
CONTINUOUS
 10
849.106934
 20
612.914429
 11
849.106934
 21
505.914429
  0
LINE
  8
LC-003-002-----0
 62
     1
  6
CONTINUOUS
 10
749.106934
 20
612.914429
 11
749.106934
 21
505.914429
  0
LINE
  8
LC-005-002-RND-0
 62
     2
  6
DASHDOT
 10
865.106934
 20
510.558777
 11
865.106934
 21
484.742706
  0
LINE
  8
LC-005-002-RND-0
 62
     2
  6
DASHDOT
 10
733.106934
 20
510.558777
 11
733.106934
 21
484.742706
  0
LINE
  8
LC-003-002-----0
 62
     1
  6
CONTINUOUS
 10
879.106934
 20
503.914429
 11
879.106934
 21
489.914429
  0
LINE
  8
LC-003-002-----0
 62
     1
  6
CONTINUOUS
 10
719.106934
 20
503.914429
 11
719.106934
 21
489.914429
  0
LINE
  8
LC-003-002-----0
 62
     1
  6
CONTINUOUS
 10
850.106934
 20
504.914429
 11
878.106934
 21
504.914429
  0
LINE
  8
LC-005-002-RND-0
 62
     2
  6
DASHDOT
 10
745.927002
 20
603.914429
 11
851.889526
 21
603.914429
  0
LINE
  8
LC-003-002-----0
 62
     1
  6
CONTINUOUS
 10
800.106934
 20
613.914429
 11
800.106934
 21
594.897766
  0
LINE
  8
LC-003-002-----0
 62
     1
  6
CONTINUOUS
 10
798.106934
 20
613.914429
 11
798.106934
 21
594.897766
  0
ARC
  8
LC-003-002-----0
 62
     1
  6
CONTINUOUS
 10
799.106934
 20
564.914429
 40
30.000000
 50
91.910215
 51
88.089790
  0
LINE
  8
LC-008-003-----0
 62
     2
  6
DASHED
 10
760.106934
 20
612.914429
 11
760.106934
 21
594.914429
  0
LINE
  8
LC-008-003-----0
 62
     2
  6
DASHED
 10
760.106934
 20
609.414429
 11
798.106934
 21
609.414429
  0
LINE
  8
LC-008-003-----0
 62
     2
  6
DASHED
 10
760.106934
 20
598.414429
 11
798.106934
 21
598.414429
  0
LINE
  8
LC-008-003-----0
 62
     2
  6
DASHED
 10
749.106934
 20
612.914429
 11
760.106934
 21
612.914429
  0
LINE
  8
LC-008-003-----0
 62
     2
  6
DASHED
 10
749.106934
 20
594.914429
 11
760.106934
 21
594.914429
  0
LINE
  8
LC-008-003-----0
 62
     2
  6
DASHED
 10
819.542847
 20
608.914429
 11
837.106934
 21
608.914429
  0
LINE
  8
LC-008-003-----0
 62
     2
  6
DASHED
 10
819.542847
 20
598.914429
 11
837.106934
 21
598.914429
  0
LINE
  8
LC-008-003-----0
 62
     2
  6
DASHED
 10
820.105774
 20
607.914429
 11
849.106934
 21
607.914429
  0
LINE
  8
LC-008-003-----0
 62
     2
  6
DASHED
 10
820.105774
 20
599.914429
 11
849.106934
 21
599.914429
  0
LINE
  8
LC-008-003-----0
 62
     2
  6
DASHED
 10
837.106934
 20
608.914429
 11
837.106934
 21
598.914429
  0
LINE
  8
LC-008-003-----0
 62
     2
  6
DASHED
 10
739.856934
 20
504.914429
 11
739.856934
 21
489.914429
  0
LINE
  8
LC-008-003-----0
 62
     2
  6
DASHED
 10
726.356934
 20
504.914429
 11
726.356934
 21
489.914429
  0
LINE
  8
LC-008-003-----0
 62
     2
  6
DASHED
 10
858.356934
 20
504.914429
 11
858.356934
 21
489.914429
  0
LINE
  8
LC-008-003-----0
 62
     2
  6
DASHED
 10
871.856934
 20
504.914429
 11
871.856934
 21
489.914429
  0
LINE
  8
LC-003-002-----0
 62
     1
  6
CONTINUOUS
 10
719.106934
 20
429.011292
 11
719.106934
 21
383.011292
  0
LINE
  8
LC-003-002-----0
 62
     1
  6
CONTINUOUS
 10
720.106934
 20
382.011292
 11
878.106934
 21
382.011292
  0
LINE
  8
LC-003-002-----0
 62
     1
  6
CONTINUOUS
 10
879.106934
 20
429.011292
 11
879.106934
 21
383.011292
  0
LINE
  8
LC-003-002-----0
 62
     1
  6
CONTINUOUS
 10
720.106934
 20
430.011292
 11
878.106934
 21
430.011292
  0
LINE
  8
LC-005-002-RND-0
 62
     2
  6
DASHDOT
 10
715.219666
 20
406.011292
 11
883.633362
 21
406.011292
  0
LINE
  8
LC-005-002-RND-0
 62
     2
  6
DASHDOT
 10
799.106934
 20
437.055603
 11
799.106934
 21
377.158722
  0
LINE
  8
LC-005-002-RND-0
 62
     2
  6
DASHDOT
 10
733.106934
 20
414.759613
 11
733.106934
 21
396.998383
  0
CIRCLE
  8
LC-003-002-----0
 62
     1
  6
CONTINUOUS
 10
733.106934
 20
406.011292
 40
6.750000
  0
LINE
  8
LC-003-002-----0
 62
     1
  6
CONTINUOUS
 10
800.106934
 20
430.011292
 11
800.106934
 21
382.011292
  0
LINE
  8
LC-003-002-----0
 62
     1
  6
CONTINUOUS
 10
798.106934
 20
430.011292
 11
798.106934
 21
382.011292
  0
LINE
  8
LC-005-002-RND-0
 62
     2
  6
DASHDOT
 10
865.106934
 20
414.759613
 11
865.106934
 21
396.998383
  0
CIRCLE
  8
LC-003-002-----0
 62
     1
  6
CONTINUOUS
 10
865.106934
 20
406.011292
 40
6.750000
  0
LINE
  8
LC-003-002-----0
 62
     1
  6
CONTINUOUS
 10
749.106934
 20
429.011292
 11
749.106934
 21
383.011292
  0
LINE
  8
LC-003-002-----0
 62
     1
  6
CONTINUOUS
 10
849.106934
 20
429.011292
 11
849.106934
 21
383.011292
  0
LINE
  8
LC-008-003-----0
 62
     2
  6
DASHED
 10
769.106934
 20
430.011292
 11
769.106934
 21
382.011292
  0
LINE
  8
LC-008-003-----0
 62
     2
  6
DASHED
 10
829.106934
 20
430.011292
 11
829.106934
 21
382.011292
  0
ARC
  8
LC-003-002-----0
 62
     1
  6
CONTINUOUS
 10
750.106934
 20
612.914429
 40
1.000000
 50
90.000003
 51
180.000009
  0
ARC
  8
LC-003-002-----0
 62
     1
  6
CONTINUOUS
 10
848.106934
 20
612.914429
 40
1.000000
 50
0.000000
 51
90.000003
  0
ARC
  8
LC-003-002-----0
 62
     1
  6
CONTINUOUS
 10
850.106934
 20
505.914429
 40
1.000000
 50
180.000009
 51
269.999997
  0
ARC
  8
LC-003-002-----0
 62
     1
  6
CONTINUOUS
 10
748.106934
 20
505.914429
 40
1.000000
 50
269.999997
 51
0.000000
  0
ARC
  8
LC-003-002-----0
 62
     1
  6
CONTINUOUS
 10
720.106934
 20
503.914429
 40
1.000000
 50
90.000003
 51
180.000009
  0
ARC
  8
LC-003-002-----0
 62
     1
  6
CONTINUOUS
 10
878.106934
 20
503.914429
 40
1.000000
 50
0.000000
 51
90.000003
  0
LINE
  8
LC-003-002-----0
 62
     1
  6
CONTINUOUS
 10
800.106934
 20
613.914429
 11
848.106934
 21
613.914429
  0
ARC
  8
LC-003-002-----0
 62
     1
  6
CONTINUOUS
 10
720.106934
 20
429.011292
 40
1.000000
 50
90.000003
 51
180.000009
  0
ARC
  8
LC-003-002-----0
 62
     1
  6
CONTINUOUS
 10
720.106934
 20
383.011292
 40
1.000000
 50
180.000009
 51
269.999997
  0
ARC
  8
LC-003-002-----0
 62
     1
  6
CONTINUOUS
 10
878.106934
 20
429.011292
 40
1.000000
 50
0.000000
 51
90.000003
  0
ARC
  8
LC-003-002-----0
 62
     1
  6
CONTINUOUS
 10
878.106934
 20
383.011292
 40
1.000000
 50
269.999997
 51
0.000000
  0
LINE
  8
LC-008-003-----0
 62
     2
  6
DASHED
 10
760.106934
 20
415.011292
 11
760.106934
 21
397.011292
  0
LINE
  8
LC-008-003-----0
 62
     2
  6
DASHED
 10
760.106934
 20
411.511292
 11
798.106934
 21
411.511292
  0
LINE
  8
LC-008-003-----0
 62
     2
  6
DASHED
 10
760.106934
 20
400.511292
 11
798.106934
 21
400.511292
  0
LINE
  8
LC-008-003-----0
 62
     2
  6
DASHED
 10
749.106934
 20
415.011292
 11
760.106934
 21
415.011292
  0
LINE
  8
LC-008-003-----0
 62
     2
  6
DASHED
 10
749.106934
 20
397.011292
 11
760.106934
 21
397.011292
  0
LINE
  8
LC-008-003-----0
 62
     2
  6
DASHED
 10
819.542847
 20
411.011292
 11
837.106934
 21
411.011292
  0
LINE
  8
LC-008-003-----0
 62
     2
  6
DASHED
 10
819.542847
 20
401.011292
 11
837.106934
 21
401.011292
  0
LINE
  8
LC-008-003-----0
 62
     2
  6
DASHED
 10
820.105774
 20
410.011292
 11
849.106934
 21
410.011292
  0
LINE
  8
LC-008-003-----0
 62
     2
  6
DASHED
 10
820.105774
 20
402.011292
 11
849.106934
 21
402.011292
  0
LINE
  8
LC-008-003-----0
 62
     2
  6
DASHED
 10
837.106934
 20
411.011292
 11
837.106934
 21
401.011292
  0
LINE
  8
LC-003-002-----0
 62
     1
  6
CONTINUOUS
 10
925.607544
 20
489.914429
 11
973.607544
 21
489.914429
  0
LINE
  8
LC-003-002-----0
 62
     1
  6
CONTINUOUS
 10
973.607544
 20
489.914429
 11
973.607544
 21
612.914429
  0
LINE
  8
LC-003-002-----0
 62
     1
  6
CONTINUOUS
 10
926.607544
 20
613.914429
 11
972.607544
 21
613.914429
  0
LINE
  8
LC-005-002-RND-0
 62
     2
  6
DASHDOT
 10
939.709106
 20
603.914429
 11
959.615906
 21
603.914429
  0
LINE
  8
LC-005-002-RND-0
 62
     2
  6
DASHDOT
 10
918.119385
 20
564.914429
 11
980.837158
 21
564.914429
  0
LINE
  8
LC-003-002-----0
 62
     1
  6
CONTINUOUS
 10
926.607544
 20
504.914429
 11
972.607544
 21
504.914429
  0
LINE
  8
LC-003-002-----0
 62
     1
  6
CONTINUOUS
 10
925.607544
 20
489.914429
 11
925.607544
 21
612.914429
  0
LINE
  8
LC-005-002-RND-0
 62
     2
  6
DASHDOT
 10
949.607544
 20
593.716492
 11
949.607544
 21
613.577759
  0
LINE
  8
LC-005-002-RND-0
 62
     2
  6
DASHDOT
 10
949.607544
 20
510.558777
 11
949.607544
 21
484.742706
  0
LINE
  8
LC-008-003-----0
 62
     2
  6
DASHED
 10
942.857544
 20
504.914429
 11
942.857544
 21
489.914429
  0
LINE
  8
LC-008-003-----0
 62
     2
  6
DASHED
 10
956.357544
 20
504.914429
 11
956.357544
 21
489.914429
  0
LINE
  8
LC-008-003-----0
 62
     2
  6
DASHED
 10
925.607544
 20
594.897766
 11
973.607544
 21
594.897766
  0
LINE
  8
LC-008-003-----0
 62
     2
  6
DASHED
 10
925.607544
 20
534.914429
 11
973.607544
 21
534.914429
  0
CIRCLE
  8
LC-003-002-----0
 62
     1
  6
CONTINUOUS
 10
949.607544
 20
603.914429
 40
9.000000
  0
ARC
  8
LC-003-002-----0
 62
     1
  6
CONTINUOUS
 10
926.607544
 20
612.914429
 40
1.000000
 50
90.000003
 51
180.000009
  0
ARC
  8
LC-003-002-----0
 62
     1
  6
CONTINUOUS
 10
972.607544
 20
612.914429
 40
1.000000
 50
0.000000
 51
90.000003
  0
ARC
  8
LC-003-002-----0
 62
     1
  6
CONTINUOUS
 10
926.607544
 20
503.914429
 40
1.000000
 50
90.000003
 51
180.000009
  0
ARC
  8
LC-003-002-----0
 62
     1
  6
CONTINUOUS
 10
972.607544
 20
503.914429
 40
1.000000
 50
0.000000
 51
90.000003
  0
ARC
  8
LC-003-002-----0
 62
     1
  6
CONTINUOUS
 10
750.106934
 20
429.011292
 40
1.000000
 50
90.000003
 51
180.000009
  0
ARC
  8
LC-003-002-----0
 62
     1
  6
CONTINUOUS
 10
750.106934
 20
383.011292
 40
1.000000
 50
180.000009
 51
269.999997
  0
ARC
  8
LC-003-002-----0
 62
     1
  6
CONTINUOUS
 10
848.106934
 20
383.011292
 40
1.000000
 50
269.999997
 51
0.000000
  0
ARC
  8
LC-003-002-----0
 62
     1
  6
CONTINUOUS
 10
848.106934
 20
429.011292
 40
1.000000
 50
0.000000
 51
90.000003
  0
LINE
  8
LC-005-002-RND-0
 62
     2
  6
DASHDOT
 10
799.106934
 20
617.935669
 11
799.106934
 21
484.742737
  0
LINE
  8
LC-008-003-----0
 62
     2
  6
DASHED
 10
800.106934
 20
608.914429
 11
819.542847
 21
608.914429
  0
LINE
  8
LC-008-003-----0
 62
     2
  6
DASHED
 10
760.105774
 20
598.914429
 11
798.106934
 21
598.914429
  0
LINE
  8
LC-003-002-----0
 62
     1
  6
CONTINUOUS
 10
798.106934
 20
598.914429
 11
800.106934
 21
598.914429
  0
LINE
  8
LC-008-003-----0
 62
     2
  6
DASHED
 10
800.106934
 20
598.914429
 11
819.542847
 21
598.914429
  0
LINE
  8
LC-008-003-----0
 62
     2
  6
DASHED
 10
820.105774
 20
607.939453
 11
800.106934
 21
607.939453
  0
LINE
  8
LC-007-004-----0
 62
     2
  6
CONTINUOUS
 10
800.106934
 20
607.939453
 11
798.106934
 21
607.939453
  0
LINE
  8
LC-008-003-----0
 62
     2
  6
DASHED
 10
798.106934
 20
607.939453
 11
788.105774
 21
607.939453
  0
LINE
  8
LC-008-003-----0
 62
     2
  6
DASHED
 10
820.105774
 20
599.889404
 11
800.106934
 21
599.889404
  0
LINE
  8
LC-007-004-----0
 62
     2
  6
CONTINUOUS
 10
800.106934
 20
599.889404
 11
798.106934
 21
599.889404
  0
LINE
  8
LC-008-003-----0
 62
     2
  6
DASHED
 10
798.106934
 20
599.889404
 11
788.105774
 21
599.889404
  0
LINE
  8
LC-008-003-----0
 62
     2
  6
DASHED
 10
760.105774
 20
411.011292
 11
798.106934
 21
411.011292
  0
LINE
  8
LC-003-002-----0
 62
     1
  6
CONTINUOUS
 10
798.106934
 20
411.011292
 11
800.106934
 21
411.011292
  0
LINE
  8
LC-008-003-----0
 62
     2
  6
DASHED
 10
800.106934
 20
411.011292
 11
819.542847
 21
411.011292
  0
LINE
  8
LC-008-003-----0
 62
     2
  6
DASHED
 10
760.105774
 20
401.011292
 11
798.106934
 21
401.011292
  0
LINE
  8
LC-003-002-----0
 62
     1
  6
CONTINUOUS
 10
798.106934
 20
401.011292
 11
800.106934
 21
401.011292
  0
LINE
  8
LC-008-003-----0
 62
     2
  6
DASHED
 10
800.106934
 20
401.011292
 11
819.542847
 21
401.011292
  0
LINE
  8
LC-008-003-----0
 62
     2
  6
DASHED
 10
820.105774
 20
410.036285
 11
800.106934
 21
410.036285
  0
LINE
  8
LC-007-004-----0
 62
     2
  6
CONTINUOUS
 10
800.106934
 20
410.036285
 11
798.106934
 21
410.036285
  0
LINE
  8
LC-008-003-----0
 62
     2
  6
DASHED
 10
798.106934
 20
410.036285
 11
788.105774
 21
410.036285
  0
LINE
  8
LC-007-004-----0
 62
     2
  6
CONTINUOUS
 10
800.106934
 20
401.986298
 11
798.106934
 21
401.986298
  0
LINE
  8
LC-008-003-----0
 62
     2
  6
DASHED
 10
798.106934
 20
401.986298
 11
788.105774
 21
401.986298
  0
LINE
  8
LC-008-003-----0
 62
     2
  6
DASHED
 10
760.105774
 20
414.011292
 11
760.105774
 21
398.011292
  0
LINE
  8
LC-008-003-----0
 62
     2
  6
DASHED
 10
751.705750
 20
414.011292
 11
760.105774
 21
414.011292
  0
ARC
  8
LC-008-003-----0
 62
     2
  6
DASHED
 10
751.705750
 20
412.411285
 40
1.600000
 50
90.000003
 51
180.000009
  0
LINE
  8
LC-008-003-----0
 62
     2
  6
DASHED
 10
750.105774
 20
399.611298
 11
750.105774
 21
412.411285
  0
LINE
  8
LC-008-003-----0
 62
     2
  6
DASHED
 10
751.705750
 20
398.011292
 11
760.105774
 21
398.011292
  0
ARC
  8
LC-008-003-----0
 62
     2
  6
DASHED
 10
751.705750
 20
399.611298
 40
1.600000
 50
180.000009
 51
269.999997
  0
LINE
  8
LC-008-003-----0
 62
     2
  6
DASHED
 10
819.542847
 20
401.011292
 11
820.105774
 21
401.986298
  0
LINE
  8
LC-008-003-----0
 62
     2
  6
DASHED
 10
819.542847
 20
411.011292
 11
820.105774
 21
410.036285
  0
LINE
  8
LC-008-003-----0
 62
     2
  6
DASHED
 10
820.105774
 20
401.986298
 11
800.106934
 21
401.986298
  0
LINE
  8
LC-008-003-----0
 62
     2
  6
DASHED
 10
760.105774
 20
611.914429
 11
760.105774
 21
595.914429
  0
LINE
  8
LC-008-003-----0
 62
     2
  6
DASHED
 10
751.705750
 20
611.914429
 11
760.105774
 21
611.914429
  0
ARC
  8
LC-008-003-----0
 62
     2
  6
DASHED
 10
751.705750
 20
610.314453
 40
1.600000
 50
90.000003
 51
180.000009
  0
LINE
  8
LC-008-003-----0
 62
     2
  6
DASHED
 10
750.105774
 20
597.514404
 11
750.105774
 21
610.314453
  0
LINE
  8
LC-008-003-----0
 62
     2
  6
DASHED
 10
751.705750
 20
595.914429
 11
760.105774
 21
595.914429
  0
ARC
  8
LC-008-003-----0
 62
     2
  6
DASHED
 10
751.705750
 20
597.514404
 40
1.600000
 50
180.000009
 51
269.999997
  0
LINE
  8
LC-008-003-----0
 62
     2
  6
DASHED
 10
819.542847
 20
598.914429
 11
820.105774
 21
599.889404
  0
LINE
  8
LC-008-003-----0
 62
     2
  6
DASHED
 10
819.542847
 20
608.914429
 11
820.105774
 21
607.939453
  0
LINE
  8
LC-008-003-----0
 62
     2
  6
DASHED
 10
788.105774
 20
411.011292
 11
788.105774
 21
401.011292
  0
LINE
  8
LC-008-003-----0
 62
     2
  6
DASHED
 10
819.542847
 20
411.011292
 11
819.542847
 21
401.011292
  0
LINE
  8
LC-008-003-----0
 62
     2
  6
DASHED
 10
820.105774
 20
410.036285
 11
820.105774
 21
401.986298
  0
LINE
  8
LC-008-003-----0
 62
     2
  6
DASHED
 10
820.105774
 20
607.939453
 11
820.105774
 21
599.889404
  0
LINE
  8
LC-008-003-----0
 62
     2
  6
DASHED
 10
819.542847
 20
608.914429
 11
819.542847
 21
598.914429
  0
LINE
  8
LC-008-003-----0
 62
     2
  6
DASHED
 10
788.105774
 20
608.914429
 11
788.105774
 21
598.914429
  0
ENDSEC
  0
EOF
