  0
SECTION
  2
HEADER
  9
$LIMMIN
 10
265.121124
 20
135.357269
  9
$LIMMAX
 10
435.930328
 20
287.903015
  9
$EXTMIN
 10
265.121124
 20
135.357269
  9
$EXTMAX
 10
435.930328
 20
287.903015
  0
ENDSEC
  0
SECTION
  2
TABLES
  0
TABLE
  2
LTYPE
 70
     3
  0
LTYPE
  2
CONTINUOUS
 70
    64
  3
Ausgezogene Linie
 72
    65
 73
     0
 40
0.0
  0
LTYPE
  2
DASHED
 70
    64
  3
__ __ __ __ __ __ __ __ __ __ __ __ __ __ __
 72
    65
 73
     2
 40
0.75
 49
0.5
 49
-0.25
  0
LTYPE
  2
DASHDOT
 70
    64
  3
__ . __ . __ . __ . __ . __ . __ . __ . __ . __
 72
    65
 73
     4
 40
1.0
 49
0.5
 49
-0.25
 49
0.0
 49
-0.25
  0
ENDTAB
  0
TABLE
  2
LAYER
 70
     5
  0
LAYER
  2
LC-INFO-1-1-MM-A1-0
 70
    64
 62
     7
  6
CONTINUOUS
  0
LAYER
  2
LC-003-002-----0
 70
    64
 62
     7
  6
CONTINUOUS
  0
LAYER
  2
LC-007-004-----0
 70
    64
 62
     7
  6
CONTINUOUS
  0
LAYER
  2
LC-008-003-----0
 70
    64
 62
     7
  6
CONTINUOUS
  0
LAYER
  2
LC-004-150-MLN-0
 70
    64
 62
     7
  6
CONTINUOUS
  0
ENDTAB
  0
TABLE
  2
STYLE
 70
     1
  0
STYLE
  2
TXT8
 70
    64
 40
0.0
 41
1.0
 50
0.0
 71
     0
 42
3.500000
  3
TXT8
  4

  0
ENDTAB
  0
ENDSEC
  0
SECTION
  2
BLOCKS
  0
ENDSEC
  0
SECTION
  2
ENTITIES
  0
ARC
  8
LC-008-003-----0
 62
     2
  6
DASHED
 10
333.440735
 20
274.989288
 40
0.848964
 50
270.548557
 51
299.305751
  0
ARC
  8
LC-008-003-----0
 62
     2
  6
DASHED
 10
333.183350
 20
275.436829
 40
1.365208
 50
299.532424
 51
320.444271
  0
ARC
  8
LC-008-003-----0
 62
     2
  6
DASHED
 10
331.782227
 20
276.504791
 40
3.126378
 50
321.706551
 51
345.729033
  0
ARC
  8
LC-008-003-----0
 62
     2
  6
DASHED
 10
329.130920
 20
277.296722
 40
5.892156
 50
344.621243
 51
0.302987
  0
ARC
  8
LC-008-003-----0
 62
     2
  6
DASHED
 10
329.130920
 20
277.359039
 40
5.892156
 50
359.697013
 51
15.378757
  0
ARC
  8
LC-008-003-----0
 62
     2
  6
DASHED
 10
331.782227
 20
278.150940
 40
3.126378
 50
14.270967
 51
38.293449
  0
ARC
  8
LC-008-003-----0
 62
     2
  6
DASHED
 10
333.183350
 20
279.218933
 40
1.365208
 50
39.555729
 51
60.467576
  0
ARC
  8
LC-008-003-----0
 62
     2
  6
DASHED
 10
333.440735
 20
279.666443
 40
0.848964
 50
60.694249
 51
89.451443
  0
ARC
  8
LC-008-003-----0
 62
     2
  6
DASHED
 10
269.430084
 20
271.559692
 40
1.731922
 50
270.622077
 51
300.081510
  0
ARC
  8
LC-008-003-----0
 62
     2
  6
DASHED
 10
268.830841
 20
272.572723
 40
2.908879
 50
300.293300
 51
321.099518
  0
ARC
  8
LC-008-003-----0
 62
     2
  6
DASHED
 10
265.483429
 20
275.072937
 40
7.085745
 50
322.363650
 51
345.307117
  0
ARC
  8
LC-008-003-----0
 62
     2
  6
DASHED
 10
258.569244
 20
277.171082
 40
14.308653
 50
344.202466
 51
358.504046
  0
ARC
  8
LC-008-003-----0
 62
     2
  6
DASHED
 10
257.306091
 20
277.345032
 40
15.576576
 50
357.985716
 51
11.495148
  0
ARC
  8
LC-008-003-----0
 62
     2
  6
DASHED
 10
287.470459
 20
283.080688
 40
1.747314
 50
90.707426
 51
121.387201
  0
ARC
  8
LC-008-003-----0
 62
     2
  6
DASHED
 10
288.153625
 20
281.979797
 40
3.042933
 50
121.572449
 51
142.717062
  0
ARC
  8
LC-008-003-----0
 62
     2
  6
DASHED
 10
291.872589
 20
279.352600
 40
7.595108
 50
143.942494
 51
166.870373
  0
ARC
  8
LC-008-003-----0
 62
     2
  6
DASHED
 10
298.909698
 20
277.404510
 40
14.893771
 50
165.721413
 51
180.294868
  0
ARC
  8
LC-008-003-----0
 62
     2
  6
DASHED
 10
298.909698
 20
277.251221
 40
14.893771
 50
179.705132
 51
194.278587
  0
ARC
  8
LC-008-003-----0
 62
     2
  6
DASHED
 10
291.872589
 20
275.303131
 40
7.595108
 50
193.129627
 51
216.057506
  0
ARC
  8
LC-008-003-----0
 62
     2
  6
DASHED
 10
288.153625
 20
272.675934
 40
3.042933
 50
217.282938
 51
238.427551
  0
ARC
  8
LC-008-003-----0
 62
     2
  6
DASHED
 10
287.470459
 20
271.575043
 40
1.747314
 50
238.612799
 51
269.292574
  0
LINE
  8
LC-008-003-----0
 62
     2
  6
DASHED
 10
290.881622
 20
277.327881
 11
290.881622
 21
277.327881
  0
LINE
  8
LC-008-003-----0
 62
     2
  6
DASHED
 10
290.881622
 20
277.327881
 11
290.881622
 21
277.327881
  0
LINE
  8
LC-003-002-----0
 62
     1
  6
CONTINUOUS
 10
267.448883
 20
215.327866
 11
267.448883
 21
275.327881
  0
LINE
  8
LC-003-002-----0
 62
     1
  6
CONTINUOUS
 10
267.448883
 20
215.327866
 11
353.448883
 21
215.327866
  0
LINE
  8
LC-003-002-----0
 62
     1
  6
CONTINUOUS
 10
353.448883
 20
275.327881
 11
353.448883
 21
215.327850
  0
LINE
  8
LC-003-002-----0
 62
     1
  6
CONTINUOUS
 10
277.448883
 20
285.327881
 11
309.948883
 21
285.327881
  0
LINE
  8
LC-003-002-----0
 62
     1
  6
CONTINUOUS
 10
393.570404
 20
285.327881
 11
393.570404
 21
215.327850
  0
LINE
  8
LC-003-002-----0
 62
     1
  6
CONTINUOUS
 10
393.570404
 20
215.327866
 11
433.570404
 21
215.327866
  0
LINE
  8
LC-003-002-----0
 62
     1
  6
CONTINUOUS
 10
393.570404
 20
285.327881
 11
433.570404
 21
285.327881
  0
LINE
  8
LC-003-002-----0
 62
     1
  6
CONTINUOUS
 10
267.448883
 20
177.325363
 11
267.448883
 21
137.325363
  0
LINE
  8
LC-003-002-----0
 62
     1
  6
CONTINUOUS
 10
267.448883
 20
137.325363
 11
353.448883
 21
137.325363
  0
LINE
  8
LC-003-002-----0
 62
     1
  6
CONTINUOUS
 10
267.448883
 20
177.325363
 11
353.448883
 21
177.325363
  0
LINE
  8
LC-003-002-----0
 62
     1
  6
CONTINUOUS
 10
433.570404
 20
285.327881
 11
433.570404
 21
215.327850
  0
LINE
  8
LC-003-002-----0
 62
     1
  6
CONTINUOUS
 10
353.448883
 20
177.325363
 11
353.448883
 21
137.325363
  0
LINE
  8
LC-007-004-----0
 62
     2
  6
DASHDOT
 10
265.121124
 20
157.325363
 11
356.235352
 21
157.325363
  0
LINE
  8
LC-007-004-----0
 62
     2
  6
DASHDOT
 10
413.570404
 20
287.903015
 11
413.570404
 21
212.375214
  0
LINE
  8
LC-007-004-----0
 62
     2
  6
DASHDOT
 10
293.818787
 20
255.327866
 11
327.413696
 21
255.327866
  0
LINE
  8
LC-008-003-----0
 62
     2
  6
DASHED
 10
269.448883
 20
257.327881
 11
287.448883
 21
257.327881
  0
LINE
  8
LC-007-004-----0
 62
     2
  6
DASHDOT
 10
310.448883
 20
287.903015
 11
310.448883
 21
212.375214
  0
LINE
  8
LC-007-004-----0
 62
     2
  6
DASHDOT
 10
310.448883
 20
180.230408
 11
310.448883
 21
135.357269
  0
LINE
  8
LC-007-004-----0
 62
     2
  6
DASHDOT
 10
342.448883
 20
167.633591
 11
342.448883
 21
147.150879
  0
LINE
  8
LC-007-004-----0
 62
     2
  6
DASHDOT
 10
278.448883
 20
167.633591
 11
278.448883
 21
147.150879
  0
LINE
  8
LC-007-004-----0
 62
     2
  6
DASHDOT
 10
342.448883
 20
287.903015
 11
342.448883
 21
212.375214
  0
LINE
  8
LC-007-004-----0
 62
     2
  6
DASHDOT
 10
278.448883
 20
287.903015
 11
278.448883
 21
212.375214
  0
LINE
  8
LC-008-003-----0
 62
     2
  6
DASHED
 10
351.448883
 20
257.327881
 11
333.448883
 21
257.327881
  0
LINE
  8
LC-008-003-----0
 62
     2
  6
DASHED
 10
393.570404
 20
240.327866
 11
433.570404
 21
240.327866
  0
LINE
  8
LC-008-003-----0
 62
     2
  6
DASHED
 10
393.570404
 20
270.327881
 11
433.570404
 21
270.327881
  0
LINE
  8
LC-008-003-----0
 62
     2
  6
DASHED
 10
295.448883
 20
177.325363
 11
295.448883
 21
137.325363
  0
LINE
  8
LC-008-003-----0
 62
     2
  6
DASHED
 10
325.448883
 20
177.325363
 11
325.448883
 21
137.325363
  0
LINE
  8
LC-003-002-----0
 62
     1
  6
CONTINUOUS
 10
310.948883
 20
285.327881
 11
310.948883
 21
270.319519
  0
LINE
  8
LC-003-002-----0
 62
     1
  6
CONTINUOUS
 10
309.948883
 20
285.327881
 11
309.948883
 21
270.319519
  0
LINE
  8
LC-003-002-----0
 62
     1
  6
CONTINUOUS
 10
310.948883
 20
285.327881
 11
343.448883
 21
285.327881
  0
ARC
  8
LC-003-002-----0
 62
     1
  6
CONTINUOUS
 10
310.448883
 20
255.327866
 40
15.000000
 50
91.910215
 51
88.089790
  0
LINE
  8
LC-003-002-----0
 62
     1
  6
CONTINUOUS
 10
310.948883
 20
177.325363
 11
310.948883
 21
137.325363
  0
LINE
  8
LC-003-002-----0
 62
     1
  6
CONTINUOUS
 10
309.948883
 20
177.325363
 11
309.948883
 21
137.325363
  0
LINE
  8
LC-007-004-----0
 62
     2
  6
DASHDOT
 10
390.291962
 20
255.327866
 11
435.930328
 21
255.327866
  0
LINE
  8
LC-008-003-----0
 62
     2
  6
DASHED
 10
284.448883
 20
215.327866
 11
284.448883
 21
241.327866
  0
LINE
  8
LC-008-003-----0
 62
     2
  6
DASHED
 10
283.698883
 20
215.327866
 11
283.698883
 21
257.327881
  0
LINE
  8
LC-008-003-----0
 62
     2
  6
DASHED
 10
284.448883
 20
241.327866
 11
272.448883
 21
241.327866
  0
LINE
  8
LC-008-003-----0
 62
     2
  6
DASHED
 10
287.448883
 20
257.327881
 11
287.448883
 21
269.827881
  0
LINE
  8
LC-008-003-----0
 62
     2
  6
DASHED
 10
336.448883
 20
215.327866
 11
336.448883
 21
241.327866
  0
LINE
  8
LC-008-003-----0
 62
     2
  6
DASHED
 10
269.448883
 20
257.327881
 11
269.448883
 21
269.827881
  0
LINE
  8
LC-008-003-----0
 62
     2
  6
DASHED
 10
272.448883
 20
215.327866
 11
272.448883
 21
241.327866
  0
LINE
  8
LC-008-003-----0
 62
     2
  6
DASHED
 10
273.198883
 20
215.327866
 11
273.198883
 21
257.327881
  0
LINE
  8
LC-008-003-----0
 62
     2
  6
DASHED
 10
337.198883
 20
215.327866
 11
337.198883
 21
257.327881
  0
LINE
  8
LC-008-003-----0
 62
     2
  6
DASHED
 10
336.448883
 20
241.327866
 11
348.448883
 21
241.327866
  0
LINE
  8
LC-008-003-----0
 62
     2
  6
DASHED
 10
333.448883
 20
257.327881
 11
333.448883
 21
274.140381
  0
LINE
  8
LC-008-003-----0
 62
     2
  6
DASHED
 10
351.448883
 20
257.327881
 11
351.448883
 21
277.327881
  0
LINE
  8
LC-008-003-----0
 62
     2
  6
DASHED
 10
348.448883
 20
215.327866
 11
348.448883
 21
241.327866
  0
LINE
  8
LC-008-003-----0
 62
     2
  6
DASHED
 10
347.698883
 20
215.327866
 11
347.698883
 21
257.327881
  0
CIRCLE
  8
LC-003-002-----0
 62
     1
  6
CONTINUOUS
 10
342.448883
 20
157.325363
 40
5.250000
  0
CIRCLE
  8
LC-003-002-----0
 62
     1
  6
CONTINUOUS
 10
342.448883
 20
157.325363
 40
9.000000
  0
ARC
  8
LC-008-003-----0
 62
     2
  6
DASHED
 10
342.448883
 20
157.325363
 40
6.000000
 50
76.722586
 51
10.441680
  0
LINE
  8
LC-008-003-----0
 62
     2
  6
DASHED
 10
422.570404
 20
257.327881
 11
404.570404
 21
257.327881
  0
LINE
  8
LC-008-003-----0
 62
     2
  6
DASHED
 10
407.570404
 20
215.327866
 11
407.570404
 21
241.327866
  0
LINE
  8
LC-008-003-----0
 62
     2
  6
DASHED
 10
408.320404
 20
215.327866
 11
408.320404
 21
257.327881
  0
LINE
  8
LC-008-003-----0
 62
     2
  6
DASHED
 10
407.570404
 20
241.327866
 11
419.570404
 21
241.327866
  0
LINE
  8
LC-008-003-----0
 62
     2
  6
DASHED
 10
404.570404
 20
257.327881
 11
404.570404
 21
285.327881
  0
LINE
  8
LC-008-003-----0
 62
     2
  6
DASHED
 10
422.570404
 20
257.327881
 11
422.570404
 21
285.327881
  0
LINE
  8
LC-008-003-----0
 62
     2
  6
DASHED
 10
419.570404
 20
215.327866
 11
419.570404
 21
241.327866
  0
LINE
  8
LC-008-003-----0
 62
     2
  6
DASHED
 10
418.820404
 20
215.327866
 11
418.820404
 21
257.327881
  0
CIRCLE
  8
LC-003-002-----0
 62
     1
  6
CONTINUOUS
 10
278.448883
 20
157.325363
 40
5.250000
  0
CIRCLE
  8
LC-003-002-----0
 62
     1
  6
CONTINUOUS
 10
278.448883
 20
157.325363
 40
9.000000
  0
ARC
  8
LC-008-003-----0
 62
     2
  6
DASHED
 10
278.448883
 20
157.325363
 40
6.000000
 50
76.722586
 51
10.441680
  0
LINE
  8
LC-003-002-----0
 62
     1
  6
CONTINUOUS
 10
267.448883
 20
275.327881
 11
277.448883
 21
285.327881
  0
LINE
  8
LC-003-002-----0
 62
     1
  6
CONTINUOUS
 10
343.448883
 20
285.327881
 11
353.448883
 21
275.327881
  0
LINE
  8
LC-003-002-----0
 62
     1
  6
CONTINUOUS
 10
393.570404
 20
275.327881
 11
406.342010
 21
275.327881
  0
LINE
  8
LC-003-002-----0
 62
     1
  6
CONTINUOUS
 10
343.448883
 20
177.325363
 11
343.448883
 21
166.269638
  0
LINE
  8
LC-003-002-----0
 62
     1
  6
CONTINUOUS
 10
277.448883
 20
177.325363
 11
277.448883
 21
166.269638
  0
LINE
  8
LC-003-002-----0
 62
     1
  6
CONTINUOUS
 10
277.448883
 20
148.381088
 11
277.448883
 21
137.325363
  0
LINE
  8
LC-003-002-----0
 62
     1
  6
CONTINUOUS
 10
343.448883
 20
148.381088
 11
343.448883
 21
137.325363
  0
LINE
  8
LC-007-004-----0
 62
     2
  6
DASHDOT
 10
266.735870
 20
277.327881
 11
335.995972
 21
277.327881
  0
LINE
  8
LC-008-003-----0
 62
     2
  6
DASHED
 10
325.978607
 20
281.327881
 11
333.448883
 21
281.327881
  0
LINE
  8
LC-008-003-----0
 62
     2
  6
DASHED
 10
325.978607
 20
273.327881
 11
333.448883
 21
273.327881
  0
LINE
  8
LC-008-003-----0
 62
     2
  6
DASHED
 10
310.948883
 20
161.325363
 11
310.950043
 21
161.325363
  0
LINE
  8
LC-008-003-----0
 62
     2
  6
DASHED
 10
296.448883
 20
281.827881
 11
309.948883
 21
281.827881
  0
LINE
  8
LC-008-003-----0
 62
     2
  6
DASHED
 10
296.448883
 20
272.827881
 11
309.948883
 21
272.827881
  0
LINE
  8
LC-008-003-----0
 62
     2
  6
DASHED
 10
296.448883
 20
269.827881
 11
296.448883
 21
284.827881
  0
LINE
  8
LC-008-003-----0
 62
     2
  6
DASHED
 10
287.448883
 20
284.827881
 11
296.448883
 21
284.827881
  0
LINE
  8
LC-008-003-----0
 62
     2
  6
DASHED
 10
287.448883
 20
269.827881
 11
296.448883
 21
269.827881
  0
LINE
  8
LC-008-003-----0
 62
     2
  6
DASHED
 10
287.448883
 20
284.827881
 11
287.448883
 21
285.327881
  0
LINE
  8
LC-003-002-----0
 62
     1
  6
CONTINUOUS
 10
310.948883
 20
165.325363
 11
310.948883
 21
150.317032
  0
LINE
  8
LC-003-002-----0
 62
     1
  6
CONTINUOUS
 10
309.948883
 20
165.325363
 11
309.948883
 21
150.317032
  0
LINE
  8
LC-004-150-MLN-0
 62
     2
  6
CONTINUOUS
 10
310.948883
 20
280.515381
 11
309.948883
 21
280.515381
  0
LINE
  8
LC-007-004-----0
 62
     2
  6
DASHDOT
 10
405.016541
 20
277.327881
 11
422.570404
 21
277.327881
  0
LINE
  8
LC-008-003-----0
 62
     2
  6
DASHED
 10
325.979767
 20
161.325363
 11
334.386627
 21
161.325363
  0
LINE
  8
LC-008-003-----0
 62
     2
  6
DASHED
 10
325.979767
 20
153.325363
 11
334.386627
 21
153.325363
  0
LINE
  8
LC-008-003-----0
 62
     2
  6
DASHED
 10
296.448883
 20
161.825363
 11
309.948883
 21
161.825363
  0
LINE
  8
LC-008-003-----0
 62
     2
  6
DASHED
 10
296.448883
 20
152.825363
 11
309.948883
 21
152.825363
  0
LINE
  8
LC-008-003-----0
 62
     2
  6
DASHED
 10
296.448883
 20
149.825363
 11
296.448883
 21
164.825363
  0
LINE
  8
LC-008-003-----0
 62
     2
  6
DASHED
 10
267.448883
 20
164.825363
 11
273.473938
 21
164.825363
  0
LINE
  8
LC-008-003-----0
 62
     2
  6
DASHED
 10
267.448883
 20
149.825363
 11
273.473938
 21
149.825363
  0
LINE
  8
LC-008-003-----0
 62
     2
  6
DASHED
 10
333.448883
 20
280.515381
 11
333.448883
 21
285.327881
  0
LINE
  8
LC-003-002-----0
 62
     1
  6
CONTINUOUS
 10
420.798828
 20
275.327881
 11
433.570404
 21
275.327881
  0
ARC
  8
LC-003-002-----0
 62
     1
  6
CONTINUOUS
 10
413.570404
 20
285.327881
 40
9.000000
 50
180.000009
 51
218.047851
  0
LINE
  8
LC-008-003-----0
 62
     2
  6
DASHED
 10
267.448883
 20
269.827881
 11
269.448883
 21
269.827881
  0
CIRCLE
  8
LC-003-002-----0
 62
     1
  6
CONTINUOUS
 10
413.570404
 20
277.327881
 40
7.500000
  0
ARC
  8
LC-003-002-----0
 62
     1
  6
CONTINUOUS
 10
413.570404
 20
285.327881
 40
9.000000
 50
321.952144
 51
0.000000
  0
LINE
  8
LC-008-003-----0
 62
     2
  6
DASHED
 10
326.447723
 20
280.515381
 11
300.197723
 21
280.515381
  0
LINE
  8
LC-008-003-----0
 62
     2
  6
DASHED
 10
283.423828
 20
164.825363
 11
296.448883
 21
164.825363
  0
LINE
  8
LC-008-003-----0
 62
     2
  6
DASHED
 10
283.423828
 20
149.825363
 11
296.448883
 21
149.825363
  0
LINE
  8
LC-004-150-MLN-0
 62
     2
  6
DASHED
 10
326.447723
 20
274.140381
 11
300.197723
 21
274.140381
  0
LINE
  8
LC-003-002-----0
 62
     1
  6
CONTINUOUS
 10
310.950043
 20
161.325363
 11
310.948883
 21
161.325363
  0
LINE
  8
LC-008-003-----0
 62
     2
  6
CONTINUOUS
 10
310.948883
 20
274.140381
 11
309.948883
 21
274.140381
  0
LINE
  8
LC-004-150-MLN-0
 62
     2
  6
CONTINUOUS
 10
310.950043
 20
160.512863
 11
309.950043
 21
160.512863
  0
LINE
  8
LC-008-003-----0
 62
     2
  6
DASHED
 10
310.948883
 20
153.325363
 11
310.950043
 21
153.325363
  0
LINE
  8
LC-003-002-----0
 62
     1
  6
CONTINUOUS
 10
310.950043
 20
153.325363
 11
310.948883
 21
153.325363
  0
LINE
  8
LC-004-150-MLN-0
 62
     2
  6
CONTINUOUS
 10
310.950043
 20
154.137863
 11
309.950043
 21
154.137863
  0
LINE
  8
LC-008-003-----0
 62
     2
  6
DASHED
 10
289.748871
 20
163.825363
 11
296.448883
 21
163.825363
  0
ARC
  8
LC-008-003-----0
 62
     2
  6
DASHED
 10
289.748871
 20
162.525360
 40
1.300000
 50
90.000003
 51
180.000009
  0
LINE
  8
LC-008-003-----0
 62
     2
  6
DASHED
 10
288.448883
 20
152.125366
 11
288.448883
 21
162.525360
  0
LINE
  8
LC-008-003-----0
 62
     2
  6
DASHED
 10
289.748871
 20
150.825363
 11
296.448883
 21
150.825363
  0
ARC
  8
LC-008-003-----0
 62
     2
  6
DASHED
 10
289.748871
 20
152.125366
 40
1.300000
 50
180.000009
 51
269.999997
  0
LINE
  8
LC-008-003-----0
 62
     2
  6
DASHED
 10
325.979767
 20
153.325363
 11
326.448883
 21
154.137863
  0
LINE
  8
LC-008-003-----0
 62
     2
  6
DASHED
 10
325.979767
 20
161.325363
 11
326.448883
 21
160.512863
  0
LINE
  8
LC-008-003-----0
 62
     2
  6
DASHED
 10
310.948883
 20
161.325363
 11
325.979767
 21
161.325363
  0
LINE
  8
LC-003-002-----0
 62
     1
  6
CONTINUOUS
 10
309.948883
 20
161.325363
 11
310.948883
 21
161.325363
  0
LINE
  8
LC-008-003-----0
 62
     2
  6
DASHED
 10
296.448883
 20
161.325363
 11
309.948883
 21
161.325363
  0
LINE
  8
LC-008-003-----0
 62
     2
  6
DASHED
 10
310.948883
 20
153.325363
 11
325.979767
 21
153.325363
  0
LINE
  8
LC-003-002-----0
 62
     1
  6
CONTINUOUS
 10
309.948883
 20
153.325363
 11
310.948883
 21
153.325363
  0
LINE
  8
LC-008-003-----0
 62
     2
  6
DASHED
 10
296.448883
 20
153.325363
 11
309.948883
 21
153.325363
  0
LINE
  8
LC-008-003-----0
 62
     2
  6
DASHED
 10
326.448883
 20
160.512863
 11
326.448883
 21
154.137863
  0
LINE
  8
LC-008-003-----0
 62
     2
  6
DASHED
 10
325.979767
 20
161.325363
 11
325.979767
 21
153.325363
  0
LINE
  8
LC-008-003-----0
 62
     2
  6
DASHED
 10
300.198883
 20
161.325363
 11
300.198883
 21
153.325363
  0
LINE
  8
LC-008-003-----0
 62
     2
  6
DASHED
 10
326.448883
 20
160.512863
 11
300.198883
 21
160.512863
  0
LINE
  8
LC-008-003-----0
 62
     2
  6
DASHED
 10
326.448883
 20
154.137863
 11
300.198883
 21
154.137863
  0
LINE
  8
LC-008-003-----0
 62
     2
  6
DASHED
 10
296.447723
 20
283.827881
 11
296.447723
 21
270.827881
  0
LINE
  8
LC-008-003-----0
 62
     2
  6
DASHED
 10
289.747711
 20
283.827881
 11
296.447723
 21
283.827881
  0
ARC
  8
LC-008-003-----0
 62
     2
  6
DASHED
 10
289.747711
 20
282.527863
 40
1.300000
 50
90.000003
 51
180.000009
  0
LINE
  8
LC-008-003-----0
 62
     2
  6
DASHED
 10
288.447723
 20
272.127869
 11
288.447723
 21
282.527863
  0
LINE
  8
LC-008-003-----0
 62
     2
  6
DASHED
 10
289.747711
 20
270.827881
 11
296.447723
 21
270.827881
  0
ARC
  8
LC-008-003-----0
 62
     2
  6
DASHED
 10
289.747711
 20
272.127869
 40
1.300000
 50
180.000009
 51
269.999997
  0
LINE
  8
LC-008-003-----0
 62
     2
  6
DASHED
 10
325.978607
 20
273.327881
 11
326.447723
 21
274.140381
  0
LINE
  8
LC-008-003-----0
 62
     2
  6
DASHED
 10
325.978607
 20
281.327881
 11
326.447723
 21
280.515381
  0
LINE
  8
LC-008-003-----0
 62
     2
  6
DASHED
 10
310.948883
 20
281.327881
 11
325.978607
 21
281.327881
  0
LINE
  8
LC-003-002-----0
 62
     1
  6
CONTINUOUS
 10
309.948883
 20
281.327881
 11
310.948883
 21
281.327881
  0
LINE
  8
LC-008-003-----0
 62
     2
  6
DASHED
 10
296.447723
 20
281.327881
 11
309.948883
 21
281.327881
  0
LINE
  8
LC-008-003-----0
 62
     2
  6
DASHED
 10
310.948883
 20
273.327881
 11
325.978607
 21
273.327881
  0
LINE
  8
LC-003-002-----0
 62
     1
  6
CONTINUOUS
 10
309.948883
 20
273.327881
 11
310.948883
 21
273.327881
  0
LINE
  8
LC-008-003-----0
 62
     2
  6
DASHED
 10
296.447723
 20
273.327881
 11
309.948883
 21
273.327881
  0
LINE
  8
LC-008-003-----0
 62
     2
  6
DASHED
 10
326.447723
 20
280.515381
 11
326.447723
 21
274.140381
  0
LINE
  8
LC-008-003-----0
 62
     2
  6
DASHED
 10
325.978607
 20
281.327881
 11
325.978607
 21
273.327881
  0
LINE
  8
LC-008-003-----0
 62
     2
  6
DASHED
 10
300.197723
 20
281.327881
 11
300.197723
 21
273.327881
  0
ENDSEC
  0
EOF
