  0
SECTION
  2
HEADER
  9
$ACADVER
  1
AC1014
  9
$ACADMAINTVER
 70
           0
  9
$DWGCODEPAGE
  3
DOS850
  9
$INSBASE
 10
0.0
 20
0.0
 30
0.0
  9
$EXTMIN
 10
593.681824
 20
217.705811
 30
0.0
  9
$EXTMAX
 10
787.424133
 20
421.823212
 30
0.0
  9
$LIMMIN
 10
593.681824
 20
217.705811
  9
$LIMMAX
 10
787.424133
 20
421.823212
  9
$ORTHOMODE
 70
           0
  9
$REGENMODE
 70
           1
  9
$FILLMODE
 70
           1
  9
$QTEXTMODE
 70
           0
  9
$MIRRTEXT
 70
           1
  9
$DRAGMODE
 70
           2
  9
$LTSCALE
 40
5.0
  9
$OSMODE
 70
           0
  9
$ATTMODE
 70
           1
  9
$TEXTSIZE
 40
0.2
  9
$TRACEWID
 40
0.05
  9
$TEXTSTYLE
  7
TXT
  9
$CLAYER
  8
0
  9
$CELTYPE
  6
CONTINUOUS
  9
$CECOLOR
 62
         256
  9
$CELTSCALE
 40
1.0
  9
$DELOBJ
 70
           1
  9
$DISPSILH
 70
           0
  9
$DIMSCALE
 40
1.0
  9
$DIMASZ
 40
3.5
  9
$DIMEXO
 40
0.0625
  9
$DIMDLI
 40
0.38
  9
$DIMRND
 40
0.0
  9
$DIMDLE
 40
0.0
  9
$DIMEXE
 40
0.18
  9
$DIMTP
 40
0.0
  9
$DIMTM
 40
0.0
  9
$DIMTXT
 40
3.5
  9
$DIMCEN
 40
0.09
  9
$DIMTSZ
 40
0.0
  9
$DIMTOL
 70
           0
  9
$DIMLIM
 70
           0
  9
$DIMTIH
 70
           1
  9
$DIMTOH
 70
           1
  9
$DIMSE1
 70
           0
  9
$DIMSE2
 70
           0
  9
$DIMTAD
 70
           0
  9
$DIMZIN
 70
           0
  9
$DIMBLK
  1

  9
$DIMASO
 70
           1
  9
$DIMSHO
 70
           1
  9
$DIMPOST
  1

  9
$DIMAPOST
  1

  9
$DIMALT
 70
           0
  9
$DIMALTD
 70
           2
  9
$DIMALTF
 40
25.4
  9
$DIMLFAC
 40
1.0
  9
$DIMTOFL
 70
           0
  9
$DIMTVP
 40
0.0
  9
$DIMTIX
 70
           0
  9
$DIMSOXD
 70
           0
  9
$DIMSAH
 70
           0
  9
$DIMBLK1
  1

  9
$DIMBLK2
  1

  9
$DIMSTYLE
  2
STANDARD
  9
$DIMCLRD
 70
           0
  9
$DIMCLRE
 70
           0
  9
$DIMCLRT
 70
           0
  9
$DIMTFAC
 40
1.0
  9
$DIMGAP
 40
0.09
  9
$DIMJUST
 70
           0
  9
$DIMSD1
 70
           0
  9
$DIMSD2
 70
           0
  9
$DIMTOLJ
 70
           1
  9
$DIMTZIN
 70
           0
  9
$DIMALTZ
 70
           0
  9
$DIMALTTZ
 70
           0
  9
$DIMFIT
 70
           3
  9
$DIMUPT
 70
           0
  9
$DIMUNIT
 70
           2
  9
$DIMDEC
 70
           4
  9
$DIMTDEC
 70
           4
  9
$DIMALTU
 70
           2
  9
$DIMALTTD
 70
           2
  9
$DIMTXSTY
  7
TXT
  9
$DIMAUNIT
 70
           0
  9
$LUNITS
 70
           2
  9
$LUPREC
 70
           2
  9
$SKETCHINC
 40
0.1
  9
$FILLETRAD
 40
0.0
  9
$AUNITS
 70
           0
  9
$AUPREC
 70
           2
  9
$MENU
  1
acad
  9
$ELEVATION
 40
0.0
  9
$PELEVATION
 40
0.0
  9
$THICKNESS
 40
0.0
  9
$LIMCHECK
 70
           0
  9
$BLIPMODE
 70
           1
  9
$CHAMFERA
 40
0.0
  9
$CHAMFERB
 40
0.0
  9
$CHAMFERC
 40
0.0
  9
$CHAMFERD
 40
0.0
  9
$SKPOLY
 70
           0
  9
$TDCREATE
 40
0.000000000
  9
$TDUPDATE
 40
0.000000000
  9
$TDINDWG
 40
0.0000000000
  9
$TDUSRTIMER
 40
0.0000000000
  9
$USRTIMER
 70
           1
  9
$ANGBASE
 50
0.0
  9
$ANGDIR
 70
           0
  9
$PDMODE
 70
           2
  9
$PDSIZE
 40
0.5
  9
$PLINEWID
 40
0.0
  9
$COORDS
 70
           0
  9
$SPLFRAME
 70
           0
  9
$SPLINETYPE
 70
           6
  9
$SPLINESEGS
 70
           8
  9
$ATTDIA
 70
           0
  9
$ATTREQ
 70
           1
  9
$HANDLING
 70
           1
  9
$HANDSEED
  5
D8
  9
$SURFTAB1
 70
           6
  9
$SURFTAB2
 70
           6
  9
$SURFTYPE
 70
           6
  9
$SURFU
 70
           6
  9
$SURFV
 70
           6
  9
$UCSNAME
  2

  9
$UCSORG
 10
0.0
 20
0.0
 30
0.0
  9
$UCSXDIR
 10
1.0
 20
0.0
 30
0.0
  9
$UCSYDIR
 10
0.0
 20
1.0
 30
0.0
  9
$PUCSNAME
  2

  9
$PUCSORG
 10
0.0
 20
0.0
 30
0.0
  9
$PUCSXDIR
 10
1.0
 20
0.0
 30
0.0
  9
$PUCSYDIR
 10
0.0
 20
1.0
 30
0.0
  9
$USERI1
 70
           0
  9
$USERI2
 70
           0
  9
$USERI3
 70
           0
  9
$USERI4
 70
           0
  9
$USERI5
 70
           0
  9
$USERR1
 40
0.0
  9
$USERR2
 40
0.0
  9
$USERR3
 40
0.0
  9
$USERR4
 40
0.0
  9
$USERR5
 40
0.0
  9
$WORLDVIEW
 70
           1
  9
$SHADEDGE
 70
           3
  9
$SHADEDIF
 70
          70
  9
$TILEMODE
 70
           1
  9
$MAXACTVP
 70
          16
  9
$PINSBASE
 10
0.0
 20
0.0
 30
0.0
  9
$PLIMCHECK
 70
           0
  9
$PEXTMIN
 10
1.000000000000E+20
 20
1.000000000000E+20
 30
1.000000000000E+20
  9
$PEXTMAX
 10
-1.000000000000E+20
 20
-1.000000000000E+20
 30
-1.000000000000E+20
  9
$PLIMMIN
 10
0.0
 20
0.0
  9
$PLIMMAX
 10
12.0
 20
9.0
  9
$UNITMODE
 70
           0
  9
$VISRETAIN
 70
           0
  9
$PLINEGEN
 70
           1
  9
$PSLTSCALE
 70
           0
  9
$TREEDEPTH
 70
        3020
  9
$PICKSTYLE
 70
           1
  9
$CMLSTYLE
  2
STANDARD
  9
$CMLJUST
 70
           0
  9
$CMLSCALE
 40
1.0
  9
$PROXYGRAPHICS
 70
           0
  9
$MEASUREMENT
 70
           0
  0
ENDSEC
  0
SECTION
  2
CLASSES
  0
CLASS
  1
LWPOLYLINE
  2
AcDbPolyline
  3
"AutoCAD"
 90
        0
280
           0
281
           1
  0
CLASS
  1
IMAGE
  2
AcDbRasterImage
  3
ISM
 90
      127
280
           0
281
           1
  0
CLASS
  1
OLE2FRAME
  2
AcDbOle2Frame
  3
""
 90
        0
280
           0
281
           1
  0
CLASS
  1
HATCH
  2
AcDbHatch
  3
"ACAD_SEDONA"
 90
        0
280
           0
281
           1
  0
CLASS
  1
DICTIONARYVAR
  2
AcDbDictionaryVar
  3
"AutoCAD"
 90
        0
280
           0
281
           0
  0
CLASS
  1
RASTERVARIABLES
  2
AcDbRasterVariables
  3
ISM
 90
        0
280
           0
281
           0
  0
CLASS
  1
IMAGEDEF
  2
AcDbRasterImageDef
  3
ISM
 90
        0
280
           0
281
           0
  0
CLASS
  1
IMAGEDEF_REACTOR
  2
AcDbRasterImageDefReactor
  3
ISM
 90
        1
280
           0
281
           0
  0
CLASS
  1
IDBUFFER
  2
AcDbIdBuffer
  3
"Acad"
 90
        0
280
           0
281
           0
  0
CLASS
  1
SPATIAL_FILTER
  2
AcDbSpatialFilter
  3
"Acad"
 90
        0
280
           0
281
           0
  0
CLASS
  1
XRECORD
  2
AcDbXrecord
  3
"<Built In>"
 90
        0
280
           0
281
           0
  0
CLASS
  1
SORTENTSTABLE
  2
AcDbSortentsTable
  3
"AutoCAD"
 90
        0
280
           0
281
           0
  0
CLASS
  1
LAYER_INDEX
  2
AcDbLayerIndex
  3
"Acad"
 90
        0
280
           0
281
           0
  0
CLASS
  1
SPATIAL_INDEX
  2
AcDbSpatialIndex
  3
"Acad"
 90
        0
280
           0
281
           0
  0
CLASS
  1
OBJECT_PTR
  2
CAseDLPNTableRecord
  3
"ASE-LPNTableRecord"
 90
        1
280
           0
281
           0
  0
CLASS
  1
LAYOUT
  2
AcDbLayout
  3
"AutoCAD 2000"
 90
        1
280
           0
281
           0
  0
CLASS
  1
PLOTSETTINGS
  2
AcDbPlotSettings
  3
"AutoCAD 2000"
 90
        1
280
           0
281
           0
  0
CLASS
  1
ACDBDICTIONARYWDFLT
  2
AcDbDictionaryWithDefault
  3
"AutoCAD 2000"
 90
        1
280
           0
281
           0
  0
CLASS
  1
ACDBPLACEHOLDER
  2
AcDbPlaceHolder
  3
"AutoCAD 2000"
 90
        1
280
           0
281
           0
  0
CLASS
  1
VBA_PROJECT
  2
AcDbVbaProject
  3
"acadvba"
 90
        1
280
           0
281
           0
  0
CLASS
  1
WIPEOUT
  2
AcDbWipeout
  3
WipeOut|AutoCAD Express Tool|expresstools@autodesk.com
 90
      127
280
           0
281
           1
  0
CLASS
  1
WIPEOUTVARIABLES
  2
AcDbWipeoutVariables
  3
WipeOut|AutoCAD Express Tool|expresstools@autodesk.com
 90
        0
280
           0
281
           0
  0
CLASS
  1
RTEXT
  2
RText
  3
RText|AutoCAD Express Tool|expresstools@autodesk.com
 90
        0
280
           0
281
           1
  0
CLASS
  1
ARCALIGNEDTEXT
  2
AcDbArcAlignedText
  3
ATEXT|AutoCAD Express Tool|expresstools@autodesk.com
 90
        0
280
           0
281
           1
  0
ENDSEC
  0
SECTION
  2
TABLES
  0
TABLE
  2
VPORT
  5
7
100
AcDbSymbolTable
 70
           1
  0
VPORT
  5
15
100
AcDbSymbolTableRecord
100
AcDbViewportTableRecord
  2
*ACTIVE
 70
           0
 10
0.0
 20
0.0
 11
1.0
 21
1.0
 12
6.591288
 22
4.579184
 13
0.0
 23
0.0
 14
1.0
 24
1.0
 15
0.0
 25
0.0
 16
0.0
 26
0.0
 36
1.0
 17
0.0
 27
0.0
 37
0.0
 40
9.158369
 41
0.688564
 42
50.0
 43
0.0
 44
0.0
 50
0.0
 51
0.0
 71
           0
 72
         100
 73
           1
 74
           1
 75
           0
 76
           0
 77
           0
 78
           0
  0
ENDTAB
  0
TABLE
  2
LTYPE
  5
4
100
AcDbSymbolTable
 70
           6
  0
LTYPE
  5
11
100
AcDbSymbolTableRecord
100
AcDbLinetypeTableRecord
  2
BYBLOCK
 70
          64
  3

 72
          65
 73
           0
 40
0.0
  0
LTYPE
  5
12
100
AcDbSymbolTableRecord
100
AcDbLinetypeTableRecord
  2
BYLAYER
 70
          64
  3

 72
          65
 73
           0
 40
0.0
  0
LTYPE
  5
13
100
AcDbSymbolTableRecord
100
AcDbLinetypeTableRecord
  2
CONTINUOUS
 70
          64
  3
Solid line
 72
          65
 73
           0
 40
0.0
  0
LTYPE
  5
1D
100
AcDbSymbolTableRecord
100
AcDbLinetypeTableRecord
  2
AUSGEZOGEN
 70
           0
  3

 72
          65
 73
           2
 40
0.5
 49
0.25
 74
           0
 49
-0.25
 74
           0
  0
LTYPE
  5
1E
100
AcDbSymbolTableRecord
100
AcDbLinetypeTableRecord
  2
STRICHLINIE
 70
           0
  3

 72
          65
 73
           2
 40
0.5
 49
0.25
 74
           0
 49
-0.25
 74
           0
  0
LTYPE
  5
1F
100
AcDbSymbolTableRecord
100
AcDbLinetypeTableRecord
  2
STRICHPUNKT
 70
           0
  3

 72
          65
 73
           4
 40
1.0
 49
0.5
 74
           0
 49
-0.25
 74
           0
 49
0.0
 74
           0
 49
-0.25
 74
           0
  0
ENDTAB
  0
TABLE
  2
LAYER
  5
2
100
AcDbSymbolTable
 70
           4
  0
LAYER
  5
14
100
AcDbSymbolTableRecord
100
AcDbLayerTableRecord
  2
0
 70
           0
 62
           7
  6
CONTINUOUS
  0
LAYER
  5
20
100
AcDbSymbolTableRecord
100
AcDbLayerTableRecord
  2
LC-007-004-----0
 70
           0
 62
           7
  6
CONTINUOUS
  0
LAYER
  5
21
100
AcDbSymbolTableRecord
100
AcDbLayerTableRecord
  2
LC-003-002-----0
 70
           0
 62
           7
  6
CONTINUOUS
  0
LAYER
  5
22
100
AcDbSymbolTableRecord
100
AcDbLayerTableRecord
  2
LC-001-150-----0
 70
           0
 62
           7
  6
CONTINUOUS
  0
ENDTAB
  0
TABLE
  2
STYLE
  5
3
100
AcDbSymbolTable
 70
           1
  0
STYLE
  5
17
100
AcDbSymbolTableRecord
100
AcDbTextStyleTableRecord
  2
TXT
 70
           0
 40
3.5
 41
1.0
 50
0.0
 71
           0
 42
3.5
  3
TXT
  4

  0
ENDTAB
  0
TABLE
  2
VIEW
  5
5
100
AcDbSymbolTable
 70
           0
  0
ENDTAB
  0
TABLE
  2
UCS
  5
6
100
AcDbSymbolTable
 70
           0
  0
ENDTAB
  0
TABLE
  2
APPID
  5
8
100
AcDbSymbolTable
 70
           2
  0
APPID
  5
16
100
AcDbSymbolTableRecord
100
AcDbRegAppTableRecord
  2
ACAD
 70
           0
  0
APPID
  5
23
100
AcDbSymbolTableRecord
100
AcDbRegAppTableRecord
  2
MegaCADPntStyle
 70
           0
  0
ENDTAB
  0
TABLE
  2
DIMSTYLE
  5
9
100
AcDbSymbolTable
 70
           1
  0
DIMSTYLE
105
18
100
AcDbSymbolTableRecord
100
AcDbDimStyleTableRecord
  2
STANDARD
 70
           0
  3

  4

  5

  6

  7

 40
1.0
 41
0.18
 42
0.0625
 43
0.38
 44
0.18
 45
0.0
 46
0.0
 47
0.0
 48
0.0
 71
           0
 72
           0
 73
           1
 74
           1
 75
           0
 76
           0
 77
           0
 78
           0
140
0.18
141
0.09
142
0.0
143
25.4
144
1.0
145
0.0
146
1.0
147
0.09
170
           0
171
           2
172
           0
173
           0
174
           0
175
           0
176
           0
177
           0
178
           0
270
           2
271
           4
272
           4
273
           2
274
           2
275
           0
280
           0
281
           0
282
           0
283
           1
284
           0
285
           0
286
           0
287
           0
288
           0
340
17
  0
ENDTAB
  0
TABLE
  2
BLOCK_RECORD
  5
1
100
AcDbSymbolTable
 70
           1
  0
BLOCK_RECORD
  5
A
100
AcDbSymbolTableRecord
100
AcDbBlockTableRecord
  2
*MODEL_SPACE
  0
BLOCK_RECORD
  5
B
100
AcDbSymbolTableRecord
100
AcDbBlockTableRecord
  2
*PAPER_SPACE
  0
BLOCK_RECORD
  5
24
102
{ACAD_XDICTIONARY
360
8C
102
}
100
AcDbSymbolTableRecord
100
AcDbBlockTableRecord
  2
ELIPPSE
  0
ENDTAB
  0
ENDSEC
  0
SECTION
  2
BLOCKS
  0
BLOCK
  5
D
100
AcDbEntity
  8
0
100
AcDbBlockBegin
  2
*MODEL_SPACE
 70
           0
 10
0.0
 20
0.0
 30
0.0
  3
*MODEL_SPACE
  1

  0
ENDBLK
  5
E
100
AcDbEntity
  8
0
100
AcDbBlockEnd
  0
BLOCK
  5
F
100
AcDbEntity
 67
           1
  8
0
100
AcDbBlockBegin
  2
*PAPER_SPACE
 70
           0
 10
0.0
 20
0.0
 30
0.0
  3
*PAPER_SPACE
  1

  0
ENDBLK
  5
10
100
AcDbEntity
 67
           1
  8
0
100
AcDbBlockEnd
  0
BLOCK
  5
D5
100
AcDbEntity
  8
0
100
AcDbBlockBegin
  2
ELIPPSE
 70
          64
 10
0.0
 20
0.0
 30
0.0
  3
ELIPPSE
  1

  0
CIRCLE
  5
D6
100
AcDbEntity
  8
0
  6
BYBLOCK
 62
           0
100
AcDbCircle
 10
0.0
 20
0.0
 30
0.0
 40
1.0
  0
ENDBLK
  5
D7
100
AcDbEntity
  8
0
  6
BYBLOCK
 62
           0
100
AcDbBlockEnd
  0
ENDSEC
  0
SECTION
  2
ENTITIES
  0
ARC
  5
25
100
AcDbEntity
  8
LC-001-150-----0
  6
STRICHLINIE
 62
           2
100
AcDbCircle
 10
599.82196
 20
405.532379
 30
0.0
 40
1.686496
100
AcDbArc
 50
270.387857
 51
295.727100000002
  0
ARC
  5
26
100
AcDbEntity
  8
LC-001-150-----0
  6
STRICHLINIE
 62
           2
100
AcDbCircle
 10
599.451355
 20
406.276978
 30
0.0
 40
2.518167
100
AcDbArc
 50
295.969552
 51
315.342815999999
  0
ARC
  5
27
100
AcDbEntity
  8
LC-001-150-----0
  6
STRICHLINIE
 62
           2
100
AcDbCircle
 10
597.220459
 20
408.302307
 30
0.0
 40
5.530068
100
AcDbArc
 50
316.662443
 51
339.590657
  0
ARC
  5
28
100
AcDbEntity
  8
LC-001-150-----0
  6
STRICHLINIE
 62
           2
100
AcDbCircle
 10
591.394958
 20
410.676575
 30
0.0
 40
11.819372
100
AcDbArc
 50
338.65139
 51
352.418571
  0
ARC
  5
29
100
AcDbEntity
  8
LC-001-150-----0
  6
STRICHLINIE
 62
           2
100
AcDbCircle
 10
587.180969
 20
411.347534
 30
0.0
 40
16.085461
100
AcDbArc
 50
352.029851
 51
3.228522
  0
LINE
  5
2A
100
AcDbEntity
  8
LC-001-150-----0
  6
STRICHLINIE
 62
           2
100
AcDbLine
 10
621.266113
 20
242.092514
 30
0.0
 11
621.266113
 21
242.092514
 31
0.0
  0
LINE
  5
2B
100
AcDbEntity
  8
LC-001-150-----0
  6
STRICHLINIE
 62
           2
100
AcDbLine
 10
621.266113
 20
242.092514
 30
0.0
 11
621.266113
 21
242.092514
 31
0.0
  0
ARC
  5
2C
100
AcDbEntity
  8
LC-001-150-----0
  6
STRICHLINIE
 62
           2
100
AcDbCircle
 10
665.825256
 20
409.007355
 30
0.0
 40
0.848964
100
AcDbArc
 50
270.548556999999
 51
299.305751000002
  0
ARC
  5
2D
100
AcDbEntity
  8
LC-001-150-----0
  6
STRICHLINIE
 62
           2
100
AcDbCircle
 10
665.567871
 20
409.454895
 30
0.0
 40
1.365208
100
AcDbArc
 50
299.532424000001
 51
320.444271
  0
ARC
  5
2E
100
AcDbEntity
  8
LC-001-150-----0
  6
STRICHLINIE
 62
           2
100
AcDbCircle
 10
664.166687
 20
410.522858
 30
0.0
 40
3.126378
100
AcDbArc
 50
321.706551
 51
345.729033
  0
ARC
  5
2F
100
AcDbEntity
  8
LC-001-150-----0
  6
STRICHLINIE
 62
           2
100
AcDbCircle
 10
661.515442
 20
411.314789
 30
0.0
 40
5.892156
100
AcDbArc
 50
344.621243
 51
0.302987
  0
ARC
  5
30
100
AcDbEntity
  8
LC-001-150-----0
  6
STRICHLINIE
 62
           2
100
AcDbCircle
 10
661.515442
 20
411.377106
 30
0.0
 40
5.892156
100
AcDbArc
 50
359.697013
 51
15.378757
  0
ARC
  5
31
100
AcDbEntity
  8
LC-001-150-----0
  6
STRICHLINIE
 62
           2
100
AcDbCircle
 10
664.166687
 20
412.169006
 30
0.0
 40
3.126378
100
AcDbArc
 50
14.270967
 51
38.293448999999
  0
ARC
  5
32
100
AcDbEntity
  8
LC-001-150-----0
  6
STRICHLINIE
 62
           2
100
AcDbCircle
 10
665.567871
 20
413.237
 30
0.0
 40
1.365208
100
AcDbArc
 50
39.555728999999
 51
60.467575999998
  0
ARC
  5
33
100
AcDbEntity
  8
LC-001-150-----0
  6
STRICHLINIE
 62
           2
100
AcDbCircle
 10
665.825256
 20
413.684509
 30
0.0
 40
0.848964
100
AcDbArc
 50
60.694248999998
 51
89.451443
  0
LINE
  5
34
100
AcDbEntity
  8
LC-001-150-----0
  6
STRICHLINIE
 62
           2
100
AcDbLine
 10
621.266113
 20
411.345917
 30
0.0
 11
621.266113
 21
411.345917
 31
0.0
  0
LINE
  5
35
100
AcDbEntity
  8
LC-001-150-----0
  6
STRICHLINIE
 62
           2
100
AcDbLine
 10
621.266113
 20
411.345917
 30
0.0
 11
621.266113
 21
411.345917
 31
0.0
  0
ARC
  5
36
100
AcDbEntity
  8
LC-001-150-----0
  6
STRICHLINIE
 62
           2
100
AcDbCircle
 10
617.854919
 20
417.098755
 30
0.0
 40
1.747314
100
AcDbArc
 50
90.707426000002
 51
121.387200999999
  0
ARC
  5
37
100
AcDbEntity
  8
LC-001-150-----0
  6
STRICHLINIE
 62
           2
100
AcDbCircle
 10
618.538086
 20
415.997864
 30
0.0
 40
3.042933
100
AcDbArc
 50
121.572448999999
 51
142.717062
  0
ARC
  5
38
100
AcDbEntity
  8
LC-001-150-----0
  6
STRICHLINIE
 62
           2
100
AcDbCircle
 10
622.25708
 20
413.370667
 30
0.0
 40
7.595108
100
AcDbArc
 50
143.942494
 51
166.870373
  0
ARC
  5
39
100
AcDbEntity
  8
LC-001-150-----0
  6
STRICHLINIE
 62
           2
100
AcDbCircle
 10
629.294189
 20
411.422577
 30
0.0
 40
14.893771
100
AcDbArc
 50
165.721413
 51
180.294868
  0
ARC
  5
3A
100
AcDbEntity
  8
LC-001-150-----0
  6
STRICHLINIE
 62
           2
100
AcDbCircle
 10
629.294189
 20
411.269287
 30
0.0
 40
14.893771
100
AcDbArc
 50
179.705132
 51
194.278587
  0
ARC
  5
3B
100
AcDbEntity
  8
LC-001-150-----0
  6
STRICHLINIE
 62
           2
100
AcDbCircle
 10
622.25708
 20
409.321198
 30
0.0
 40
7.595108
100
AcDbArc
 50
193.129627
 51
216.057506
  0
ARC
  5
3C
100
AcDbEntity
  8
LC-001-150-----0
  6
STRICHLINIE
 62
           2
100
AcDbCircle
 10
618.538086
 20
406.694
 30
0.0
 40
3.042933
100
AcDbArc
 50
217.282938
 51
238.427551
  0
ARC
  5
3D
100
AcDbEntity
  8
LC-001-150-----0
  6
STRICHLINIE
 62
           2
100
AcDbCircle
 10
617.854919
 20
405.593109
 30
0.0
 40
1.747314
100
AcDbArc
 50
238.612799
 51
269.292574000001
  0
LINE
  5
3E
100
AcDbEntity
  8
LC-007-004-----0
  6
AUSGEZOGEN
 62
           1
100
AcDbLine
 10
598.333374
 20
343.345917
 30
0.0
 11
685.333374
 21
343.345917
 31
0.0
  0
LINE
  5
3F
100
AcDbEntity
  8
LC-007-004-----0
  6
AUSGEZOGEN
 62
           1
100
AcDbLine
 10
685.333374
 20
343.345917
 30
0.0
 11
685.333374
 21
407.345917
 31
0.0
  0
LINE
  5
40
100
AcDbEntity
  8
LC-007-004-----0
  6
AUSGEZOGEN
 62
           1
100
AcDbLine
 10
742.149353
 20
343.345917
 30
0.0
 11
782.149353
 21
343.345917
 31
0.0
  0
LINE
  5
41
100
AcDbEntity
  8
LC-007-004-----0
  6
AUSGEZOGEN
 62
           1
100
AcDbLine
 10
742.149353
 20
343.345917
 30
0.0
 11
742.149353
 21
419.345917
 31
0.0
  0
LINE
  5
42
100
AcDbEntity
  8
LC-007-004-----0
  6
AUSGEZOGEN
 62
           1
100
AcDbLine
 10
685.333374
 20
262.092529
 30
0.0
 11
685.333374
 21
222.092499
 31
0.0
  0
LINE
  5
43
100
AcDbEntity
  8
LC-007-004-----0
  6
AUSGEZOGEN
 62
           1
100
AcDbLine
 10
685.333374
 20
262.092529
 30
0.0
 11
598.333374
 21
262.092529
 31
0.0
  0
LINE
  5
44
100
AcDbEntity
  8
LC-007-004-----0
  6
AUSGEZOGEN
 62
           1
100
AcDbLine
 10
598.333374
 20
343.345917
 30
0.0
 11
598.333374
 21
407.345917
 31
0.0
  0
LINE
  5
45
100
AcDbEntity
  8
LC-007-004-----0
  6
AUSGEZOGEN
 62
           1
100
AcDbLine
 10
610.333374
 20
419.345917
 30
0.0
 11
641.333374
 21
419.345917
 31
0.0
  0
LINE
  5
46
100
AcDbEntity
  8
LC-007-004-----0
  6
AUSGEZOGEN
 62
           1
100
AcDbLine
 10
742.149353
 20
419.345917
 30
0.0
 11
782.149353
 21
419.345917
 31
0.0
  0
LINE
  5
47
100
AcDbEntity
  8
LC-007-004-----0
  6
AUSGEZOGEN
 62
           1
100
AcDbLine
 10
782.149353
 20
343.345917
 30
0.0
 11
782.149353
 21
419.345917
 31
0.0
  0
LINE
  5
48
100
AcDbEntity
  8
LC-007-004-----0
  6
AUSGEZOGEN
 62
           1
100
AcDbLine
 10
598.333374
 20
262.092529
 30
0.0
 11
598.333374
 21
222.092499
 31
0.0
  0
LINE
  5
49
100
AcDbEntity
  8
LC-007-004-----0
  6
AUSGEZOGEN
 62
           1
100
AcDbLine
 10
685.333374
 20
222.092514
 30
0.0
 11
598.333374
 21
222.092514
 31
0.0
  0
LINE
  5
4A
100
AcDbEntity
  8
LC-003-002-----0
  6
STRICHPUNKT
 62
           2
100
AcDbLine
 10
689.209106
 20
242.092514
 30
0.0
 11
593.681824
 21
242.092514
 31
0.0
  0
LINE
  5
4B
100
AcDbEntity
  8
LC-003-002-----0
  6
STRICHPUNKT
 62
           2
100
AcDbLine
 10
762.149353
 20
340.345642
 30
0.0
 11
762.149353
 21
421.823212
 31
0.0
  0
LINE
  5
4C
100
AcDbEntity
  8
LC-003-002-----0
  6
STRICHPUNKT
 62
           2
100
AcDbLine
 10
641.833374
 20
340.345642
 30
0.0
 11
641.833374
 21
421.823212
 31
0.0
  0
LINE
  5
4D
100
AcDbEntity
  8
LC-003-002-----0
  6
STRICHPUNKT
 62
           2
100
AcDbLine
 10
619.498413
 20
385.345917
 30
0.0
 11
663.339355
 21
385.345917
 31
0.0
  0
LINE
  5
4E
100
AcDbEntity
  8
LC-003-002-----0
  6
STRICHPUNKT
 62
           2
100
AcDbLine
 10
737.869324
 20
385.345917
 30
0.0
 11
787.424133
 21
385.345917
 31
0.0
  0
LINE
  5
4F
100
AcDbEntity
  8
LC-003-002-----0
  6
STRICHPUNKT
 62
           2
100
AcDbLine
 10
674.833374
 20
340.345642
 30
0.0
 11
674.833374
 21
421.823212
 31
0.0
  0
LINE
  5
50
100
AcDbEntity
  8
LC-003-002-----0
  6
STRICHPUNKT
 62
           2
100
AcDbLine
 10
608.833374
 20
340.345642
 30
0.0
 11
608.833374
 21
421.823212
 31
0.0
  0
LINE
  5
51
100
AcDbEntity
  8
LC-003-002-----0
  6
STRICHPUNKT
 62
           2
100
AcDbLine
 10
641.833374
 20
266.247528
 30
0.0
 11
641.833374
 21
217.705811
 31
0.0
  0
LINE
  5
52
100
AcDbEntity
  8
LC-001-150-----0
  6
STRICHLINIE
 62
           2
100
AcDbLine
 10
641.333374
 20
415.345917
 30
0.0
 11
642.333374
 21
415.345917
 31
0.0
  0
LINE
  5
53
100
AcDbEntity
  8
LC-001-150-----0
  6
STRICHLINIE
 62
           2
100
AcDbLine
 10
742.149353
 20
405.345917
 30
0.0
 11
782.149353
 21
405.345917
 31
0.0
  0
LINE
  5
54
100
AcDbEntity
  8
LC-001-150-----0
  6
STRICHLINIE
 62
           2
100
AcDbLine
 10
742.149353
 20
365.345917
 30
0.0
 11
782.149353
 21
365.345917
 31
0.0
  0
LINE
  5
55
100
AcDbEntity
  8
LC-001-150-----0
  6
STRICHLINIE
 62
           2
100
AcDbLine
 10
661.833374
 20
262.092529
 30
0.0
 11
661.833374
 21
222.092499
 31
0.0
  0
LINE
  5
56
100
AcDbEntity
  8
LC-001-150-----0
  6
STRICHLINIE
 62
           2
100
AcDbLine
 10
621.833374
 20
262.092529
 30
0.0
 11
621.833374
 21
222.092499
 31
0.0
  0
LINE
  5
57
100
AcDbEntity
  8
LC-007-004-----0
  6
AUSGEZOGEN
 62
           1
100
AcDbLine
 10
642.333374
 20
405.339691
 30
0.0
 11
642.333374
 21
419.345917
 31
0.0
  0
LINE
  5
58
100
AcDbEntity
  8
LC-007-004-----0
  6
AUSGEZOGEN
 62
           1
100
AcDbLine
 10
641.333374
 20
405.339691
 30
0.0
 11
641.333374
 21
419.345917
 31
0.0
  0
ARC
  5
59
100
AcDbEntity
  8
LC-007-004-----0
  6
AUSGEZOGEN
 62
           1
100
AcDbCircle
 10
641.833374
 20
385.345917
 30
0.0
 40
20.0
100
AcDbArc
 50
91.432546
 51
88.567459
  0
LINE
  5
5A
100
AcDbEntity
  8
LC-007-004-----0
  6
AUSGEZOGEN
 62
           1
100
AcDbLine
 10
673.333374
 20
419.345917
 30
0.0
 11
642.333374
 21
419.345917
 31
0.0
  0
LINE
  5
5B
100
AcDbEntity
  8
LC-007-004-----0
  6
AUSGEZOGEN
 62
           1
100
AcDbLine
 10
642.333374
 20
262.092529
 30
0.0
 11
642.333374
 21
222.092499
 31
0.0
  0
LINE
  5
5C
100
AcDbEntity
  8
LC-007-004-----0
  6
AUSGEZOGEN
 62
           1
100
AcDbLine
 10
641.333374
 20
262.092529
 30
0.0
 11
641.333374
 21
222.092499
 31
0.0
  0
LINE
  5
5D
100
AcDbEntity
  8
LC-007-004-----0
  6
AUSGEZOGEN
 62
           1
100
AcDbLine
 10
598.333374
 20
407.345917
 30
0.0
 11
610.333374
 21
419.345917
 31
0.0
  0
LINE
  5
5E
100
AcDbEntity
  8
LC-007-004-----0
  6
AUSGEZOGEN
 62
           1
100
AcDbLine
 10
685.333374
 20
407.345917
 30
0.0
 11
673.333374
 21
419.345917
 31
0.0
  0
LINE
  5
5F
100
AcDbEntity
  8
LC-001-150-----0
  6
STRICHLINIE
 62
           2
100
AcDbLine
 10
614.833374
 20
343.345917
 30
0.0
 11
614.833374
 21
369.345917
 31
0.0
  0
LINE
  5
60
100
AcDbEntity
  8
LC-001-150-----0
  6
STRICHLINIE
 62
           2
100
AcDbLine
 10
668.833374
 20
343.345917
 30
0.0
 11
668.833374
 21
369.345917
 31
0.0
  0
LINE
  5
61
100
AcDbEntity
  8
LC-001-150-----0
  6
STRICHLINIE
 62
           2
100
AcDbLine
 10
669.583374
 20
343.345917
 30
0.0
 11
669.583374
 21
384.345917
 31
0.0
  0
LINE
  5
62
100
AcDbEntity
  8
LC-001-150-----0
  6
STRICHLINIE
 62
           2
100
AcDbLine
 10
668.833374
 20
369.345917
 30
0.0
 11
680.833374
 21
369.345917
 31
0.0
  0
LINE
  5
63
100
AcDbEntity
  8
LC-001-150-----0
  6
STRICHLINIE
 62
           2
100
AcDbLine
 10
665.833374
 20
384.345917
 30
0.0
 11
665.833374
 21
408.158417
 31
0.0
  0
LINE
  5
64
100
AcDbEntity
  8
LC-001-150-----0
  6
STRICHLINIE
 62
           2
100
AcDbLine
 10
680.833374
 20
343.345917
 30
0.0
 11
680.833374
 21
369.345917
 31
0.0
  0
LINE
  5
65
100
AcDbEntity
  8
LC-001-150-----0
  6
STRICHLINIE
 62
           2
100
AcDbLine
 10
680.083374
 20
343.345917
 30
0.0
 11
680.083374
 21
384.345917
 31
0.0
  0
LINE
  5
66
100
AcDbEntity
  8
LC-001-150-----0
  6
STRICHLINIE
 62
           2
100
AcDbLine
 10
614.083374
 20
343.345917
 30
0.0
 11
614.083374
 21
384.345917
 31
0.0
  0
LINE
  5
67
100
AcDbEntity
  8
LC-001-150-----0
  6
STRICHLINIE
 62
           2
100
AcDbLine
 10
683.833374
 20
384.345917
 30
0.0
 11
665.833374
 21
384.345917
 31
0.0
  0
LINE
  5
68
100
AcDbEntity
  8
LC-001-150-----0
  6
STRICHLINIE
 62
           2
100
AcDbLine
 10
683.833374
 20
384.345917
 30
0.0
 11
683.833374
 21
408.845917
 31
0.0
  0
LINE
  5
69
100
AcDbEntity
  8
LC-001-150-----0
  6
STRICHLINIE
 62
           2
100
AcDbLine
 10
614.833374
 20
369.345917
 30
0.0
 11
602.833374
 21
369.345917
 31
0.0
  0
LINE
  5
6A
100
AcDbEntity
  8
LC-001-150-----0
  6
STRICHLINIE
 62
           2
100
AcDbLine
 10
617.833374
 20
384.345917
 30
0.0
 11
617.833374
 21
403.845917
 31
0.0
  0
LINE
  5
6B
100
AcDbEntity
  8
LC-001-150-----0
  6
STRICHLINIE
 62
           2
100
AcDbLine
 10
602.833374
 20
343.345917
 30
0.0
 11
602.833374
 21
369.345917
 31
0.0
  0
LINE
  5
6C
100
AcDbEntity
  8
LC-001-150-----0
  6
STRICHLINIE
 62
           2
100
AcDbLine
 10
603.583374
 20
343.345917
 30
0.0
 11
603.583374
 21
384.345917
 31
0.0
  0
LINE
  5
6D
100
AcDbEntity
  8
LC-001-150-----0
  6
STRICHLINIE
 62
           2
100
AcDbLine
 10
599.833374
 20
384.345917
 30
0.0
 11
617.833374
 21
384.345917
 31
0.0
  0
LINE
  5
6E
100
AcDbEntity
  8
LC-001-150-----0
  6
STRICHLINIE
 62
           2
100
AcDbLine
 10
599.833374
 20
384.345917
 30
0.0
 11
599.833374
 21
403.845917
 31
0.0
  0
LINE
  5
6F
100
AcDbEntity
  8
LC-001-150-----0
  6
STRICHLINIE
 62
           2
100
AcDbLine
 10
756.149353
 20
343.345917
 30
0.0
 11
756.149353
 21
369.345917
 31
0.0
  0
LINE
  5
70
100
AcDbEntity
  8
LC-001-150-----0
  6
STRICHLINIE
 62
           2
100
AcDbLine
 10
756.899353
 20
343.345917
 30
0.0
 11
756.899353
 21
384.345917
 31
0.0
  0
LINE
  5
71
100
AcDbEntity
  8
LC-001-150-----0
  6
STRICHLINIE
 62
           2
100
AcDbLine
 10
756.149353
 20
369.345917
 30
0.0
 11
768.149353
 21
369.345917
 31
0.0
  0
LINE
  5
72
100
AcDbEntity
  8
LC-001-150-----0
  6
STRICHLINIE
 62
           2
100
AcDbLine
 10
753.149353
 20
384.345917
 30
0.0
 11
753.149353
 21
419.345917
 31
0.0
  0
LINE
  5
73
100
AcDbEntity
  8
LC-001-150-----0
  6
STRICHLINIE
 62
           2
100
AcDbLine
 10
768.149353
 20
343.345917
 30
0.0
 11
768.149353
 21
369.345917
 31
0.0
  0
LINE
  5
74
100
AcDbEntity
  8
LC-001-150-----0
  6
STRICHLINIE
 62
           2
100
AcDbLine
 10
767.399353
 20
343.345917
 30
0.0
 11
767.399353
 21
384.345917
 31
0.0
  0
LINE
  5
75
100
AcDbEntity
  8
LC-001-150-----0
  6
STRICHLINIE
 62
           2
100
AcDbLine
 10
771.149353
 20
384.345917
 30
0.0
 11
753.149353
 21
384.345917
 31
0.0
  0
LINE
  5
76
100
AcDbEntity
  8
LC-001-150-----0
  6
STRICHLINIE
 62
           2
100
AcDbLine
 10
771.149353
 20
384.345917
 30
0.0
 11
771.149353
 21
419.345917
 31
0.0
  0
LINE
  5
77
100
AcDbEntity
  8
LC-003-002-----0
  6
STRICHPUNKT
 62
           2
100
AcDbLine
 10
608.833374
 20
252.400742
 30
0.0
 11
608.833374
 21
231.918045
 31
0.0
  0
CIRCLE
  5
78
100
AcDbEntity
  8
LC-007-004-----0
  6
AUSGEZOGEN
 62
           1
100
AcDbCircle
 10
608.833374
 20
242.092514
 30
0.0
 40
5.25
  0
CIRCLE
  5
79
100
AcDbEntity
  8
LC-007-004-----0
  6
AUSGEZOGEN
 62
           1
100
AcDbCircle
 10
608.833374
 20
242.092514
 30
0.0
 40
9.0
  0
ARC
  5
7A
100
AcDbEntity
  8
LC-001-150-----0
  6
STRICHLINIE
 62
           2
100
AcDbCircle
 10
608.833374
 20
242.092514
 30
0.0
 40
6.0
100
AcDbArc
 50
76.722586
 51
10.44168
  0
LINE
  5
7B
100
AcDbEntity
  8
LC-003-002-----0
  6
STRICHPUNKT
 62
           2
100
AcDbLine
 10
674.833374
 20
252.400742
 30
0.0
 11
674.833374
 21
231.918045
 31
0.0
  0
CIRCLE
  5
7C
100
AcDbEntity
  8
LC-007-004-----0
  6
AUSGEZOGEN
 62
           1
100
AcDbCircle
 10
674.833374
 20
242.092514
 30
0.0
 40
5.25
  0
CIRCLE
  5
7D
100
AcDbEntity
  8
LC-007-004-----0
  6
AUSGEZOGEN
 62
           1
100
AcDbCircle
 10
674.833374
 20
242.092514
 30
0.0
 40
9.0
  0
ARC
  5
7E
100
AcDbEntity
  8
LC-001-150-----0
  6
STRICHLINIE
 62
           2
100
AcDbCircle
 10
674.833374
 20
242.092514
 30
0.0
 40
6.0
100
AcDbArc
 50
76.722586
 51
10.44168
  0
LINE
  5
7F
100
AcDbEntity
  8
LC-001-150-----0
  6
STRICHLINIE
 62
           2
100
AcDbLine
 10
656.363098
 20
415.345917
 30
0.0
 11
665.833374
 21
415.345917
 31
0.0
  0
LINE
  5
80
100
AcDbEntity
  8
LC-007-004-----0
  6
AUSGEZOGEN
 62
           1
100
AcDbLine
 10
642.333374
 20
415.345917
 30
0.0
 11
641.333374
 21
415.345917
 31
0.0
  0
LINE
  5
81
100
AcDbEntity
  8
LC-001-150-----0
  6
STRICHLINIE
 62
           2
100
AcDbLine
 10
656.363098
 20
407.345917
 30
0.0
 11
665.833374
 21
407.345917
 31
0.0
  0
LINE
  5
82
100
AcDbEntity
  8
LC-001-150-----0
  6
STRICHLINIE
 62
           2
100
AcDbLine
 10
626.833374
 20
415.845917
 30
0.0
 11
641.333374
 21
415.845917
 31
0.0
  0
LINE
  5
83
100
AcDbEntity
  8
LC-001-150-----0
  6
STRICHLINIE
 62
           2
100
AcDbLine
 10
626.833374
 20
406.845917
 30
0.0
 11
641.333374
 21
406.845917
 31
0.0
  0
LINE
  5
84
100
AcDbEntity
  8
LC-001-150-----0
  6
STRICHLINIE
 62
           2
100
AcDbLine
 10
665.833374
 20
414.533417
 30
0.0
 11
665.833374
 21
419.345917
 31
0.0
  0
LINE
  5
85
100
AcDbEntity
  8
LC-001-150-----0
  6
STRICHLINIE
 62
           2
100
AcDbLine
 10
617.833374
 20
418.845917
 30
0.0
 11
626.833374
 21
418.845917
 31
0.0
  0
LINE
  5
86
100
AcDbEntity
  8
LC-001-150-----0
  6
STRICHLINIE
 62
           2
100
AcDbLine
 10
617.833374
 20
403.845917
 30
0.0
 11
626.833374
 21
403.845917
 31
0.0
  0
LINE
  5
87
100
AcDbEntity
  8
LC-001-150-----0
  6
AUSGEZOGEN
 62
           2
100
AcDbLine
 10
642.333374
 20
414.533417
 30
0.0
 11
641.333374
 21
414.533417
 31
0.0
  0
LINE
  5
88
100
AcDbEntity
  8
LC-001-150-----0
  6
STRICHLINIE
 62
           2
100
AcDbLine
 10
665.833374
 20
414.533417
 30
0.0
 11
656.832214
 21
414.533417
 31
0.0
  0
LINE
  5
89
100
AcDbEntity
  8
LC-001-150-----0
  6
STRICHLINIE
 62
           2
100
AcDbLine
 10
656.832214
 20
414.533417
 30
0.0
 11
630.582214
 21
414.533417
 31
0.0
  0
LINE
  5
8A
100
AcDbEntity
  8
LC-001-150-----0
  6
STRICHLINIE
 62
           2
100
AcDbLine
 10
665.833374
 20
408.158417
 30
0.0
 11
656.832214
 21
408.158417
 31
0.0
  0
LINE
  5
8B
100
AcDbEntity
  8
LC-001-150-----0
  6
STRICHLINIE
 62
           2
100
AcDbLine
 10
656.832214
 20
408.158417
 30
0.0
 11
630.582214
 21
408.158417
 31
0.0
  0
LINE
  5
8C
100
AcDbEntity
  8
LC-001-150-----0
  6
STRICHLINIE
 62
           2
100
AcDbLine
 10
641.333374
 20
407.345917
 30
0.0
 11
642.333374
 21
407.345917
 31
0.0
  0
LINE
  5
8D
100
AcDbEntity
  8
LC-007-004-----0
  6
AUSGEZOGEN
 62
           1
100
AcDbLine
 10
642.333374
 20
407.345917
 30
0.0
 11
641.333374
 21
407.345917
 31
0.0
  0
LINE
  5
8E
100
AcDbEntity
  8
LC-001-150-----0
  6
AUSGEZOGEN
 62
           2
100
AcDbLine
 10
642.333374
 20
408.158417
 30
0.0
 11
641.333374
 21
408.158417
 31
0.0
  0
LINE
  5
8F
100
AcDbEntity
  8
LC-001-150-----0
  6
STRICHLINIE
 62
           2
100
AcDbLine
 10
626.832214
 20
418.845917
 30
0.0
 11
626.832214
 21
403.845917
 31
0.0
  0
LINE
  5
90
100
AcDbEntity
  8
LC-001-150-----0
  6
STRICHLINIE
 62
           2
100
AcDbLine
 10
620.132202
 20
417.845917
 30
0.0
 11
626.832214
 21
417.845917
 31
0.0
  0
ARC
  5
91
100
AcDbEntity
  8
LC-001-150-----0
  6
STRICHLINIE
 62
           2
100
AcDbCircle
 10
620.132202
 20
416.545929
 30
0.0
 40
1.3
100
AcDbArc
 50
90.000003
 51
180.000009000001
  0
LINE
  5
92
100
AcDbEntity
  8
LC-001-150-----0
  6
STRICHLINIE
 62
           2
100
AcDbLine
 10
618.832214
 20
406.145935
 30
0.0
 11
618.832214
 21
416.545929
 31
0.0
  0
LINE
  5
93
100
AcDbEntity
  8
LC-001-150-----0
  6
STRICHLINIE
 62
           2
100
AcDbLine
 10
620.132202
 20
404.845917
 30
0.0
 11
626.832214
 21
404.845917
 31
0.0
  0
ARC
  5
94
100
AcDbEntity
  8
LC-001-150-----0
  6
STRICHLINIE
 62
           2
100
AcDbCircle
 10
620.132202
 20
406.145935
 30
0.0
 40
1.3
100
AcDbArc
 50
180.000009000001
 51
269.999997
  0
LINE
  5
95
100
AcDbEntity
  8
LC-001-150-----0
  6
STRICHLINIE
 62
           2
100
AcDbLine
 10
656.363098
 20
407.345917
 30
0.0
 11
656.832214
 21
408.158417
 31
0.0
  0
LINE
  5
96
100
AcDbEntity
  8
LC-001-150-----0
  6
STRICHLINIE
 62
           2
100
AcDbLine
 10
656.363098
 20
415.345917
 30
0.0
 11
656.832214
 21
414.533417
 31
0.0
  0
LINE
  5
97
100
AcDbEntity
  8
LC-001-150-----0
  6
STRICHLINIE
 62
           2
100
AcDbLine
 10
642.333374
 20
415.345917
 30
0.0
 11
656.363098
 21
415.345917
 31
0.0
  0
LINE
  5
98
100
AcDbEntity
  8
LC-001-150-----0
  6
STRICHLINIE
 62
           2
100
AcDbLine
 10
626.832214
 20
415.345917
 30
0.0
 11
641.333374
 21
415.345917
 31
0.0
  0
LINE
  5
99
100
AcDbEntity
  8
LC-001-150-----0
  6
STRICHLINIE
 62
           2
100
AcDbLine
 10
642.333374
 20
407.345917
 30
0.0
 11
656.363098
 21
407.345917
 31
0.0
  0
LINE
  5
9A
100
AcDbEntity
  8
LC-001-150-----0
  6
STRICHLINIE
 62
           2
100
AcDbLine
 10
626.832214
 20
407.345917
 30
0.0
 11
641.333374
 21
407.345917
 31
0.0
  0
LINE
  5
9B
100
AcDbEntity
  8
LC-001-150-----0
  6
STRICHLINIE
 62
           2
100
AcDbLine
 10
656.832214
 20
414.533417
 30
0.0
 11
656.832214
 21
408.158417
 31
0.0
  0
LINE
  5
9C
100
AcDbEntity
  8
LC-001-150-----0
  6
STRICHLINIE
 62
           2
100
AcDbLine
 10
656.363098
 20
415.345917
 30
0.0
 11
656.363098
 21
407.345917
 31
0.0
  0
LINE
  5
9D
100
AcDbEntity
  8
LC-001-150-----0
  6
STRICHLINIE
 62
           2
100
AcDbLine
 10
630.582214
 20
415.345917
 30
0.0
 11
630.582214
 21
407.345917
 31
0.0
  0
LINE
  5
9E
100
AcDbEntity
  8
LC-003-002-----0
  6
STRICHPUNKT
 62
           2
100
AcDbLine
 10
598.120361
 20
411.345917
 30
0.0
 11
668.380493
 21
411.345917
 31
0.0
  0
LINE
  5
9F
100
AcDbEntity
  8
LC-001-150-----0
  6
STRICHLINIE
 62
           2
100
AcDbLine
 10
617.833374
 20
418.845917
 30
0.0
 11
617.833374
 21
419.345917
 31
0.0
  0
LINE
  5
A0
100
AcDbEntity
  8
LC-001-150-----0
  6
STRICHLINIE
 62
           2
100
AcDbLine
 10
613.808289
 20
249.592514
 30
0.0
 11
626.833374
 21
249.592514
 31
0.0
  0
LINE
  5
A1
100
AcDbEntity
  8
LC-003-002-----0
  6
STRICHPUNKT
 62
           2
100
AcDbLine
 10
753.595459
 20
411.345917
 30
0.0
 11
771.149353
 21
411.345917
 31
0.0
  0
ARC
  5
A2
100
AcDbEntity
  8
LC-007-004-----0
  6
AUSGEZOGEN
 62
           1
100
AcDbCircle
 10
762.149353
 20
419.345917
 30
0.0
 40
9.0
100
AcDbArc
 50
180.000009
 51
218.047851
  0
CIRCLE
  5
A3
100
AcDbEntity
  8
LC-007-004-----0
  6
AUSGEZOGEN
 62
           1
100
AcDbCircle
 10
762.149353
 20
411.345917
 30
0.0
 40
7.5
  0
ARC
  5
A4
100
AcDbEntity
  8
LC-007-004-----0
  6
AUSGEZOGEN
 62
           1
100
AcDbCircle
 10
762.149353
 20
419.345917
 30
0.0
 40
9.0
100
AcDbArc
 50
321.952144
 51
0.0
  0
CIRCLE
  5
A5
100
AcDbEntity
  8
LC-007-004-----0
  6
AUSGEZOGEN
 62
           1
100
AcDbCircle
 10
762.149353
 20
411.345917
 30
0.0
 40
6.5
  0
LINE
  5
A6
100
AcDbEntity
  8
LC-007-004-----0
  6
AUSGEZOGEN
 62
           1
100
AcDbLine
 10
762.149353
 20
414.810028
 30
0.0
 11
759.149353
 21
413.077972
 31
0.0
  0
LINE
  5
A7
100
AcDbEntity
  8
LC-007-004-----0
  6
AUSGEZOGEN
 62
           1
100
AcDbLine
 10
759.149353
 20
413.077972
 30
0.0
 11
759.149353
 21
409.613892
 31
0.0
  0
LINE
  5
A8
100
AcDbEntity
  8
LC-007-004-----0
  6
AUSGEZOGEN
 62
           1
100
AcDbLine
 10
759.149353
 20
409.613892
 30
0.0
 11
762.149353
 21
407.881836
 31
0.0
  0
LINE
  5
A9
100
AcDbEntity
  8
LC-007-004-----0
  6
AUSGEZOGEN
 62
           1
100
AcDbLine
 10
762.149353
 20
407.881836
 30
0.0
 11
765.149353
 21
409.613892
 31
0.0
  0
LINE
  5
AA
100
AcDbEntity
  8
LC-007-004-----0
  6
AUSGEZOGEN
 62
           1
100
AcDbLine
 10
765.149353
 20
409.613892
 30
0.0
 11
765.149353
 21
413.077972
 31
0.0
  0
LINE
  5
AB
100
AcDbEntity
  8
LC-007-004-----0
  6
AUSGEZOGEN
 62
           1
100
AcDbLine
 10
765.149353
 20
413.077972
 30
0.0
 11
762.149353
 21
414.810028
 31
0.0
  0
LINE
  5
AC
100
AcDbEntity
  8
LC-001-150-----0
  6
STRICHLINIE
 62
           2
100
AcDbLine
 10
641.333374
 20
246.092514
 30
0.0
 11
642.333374
 21
246.092514
 31
0.0
  0
LINE
  5
AD
100
AcDbEntity
  8
LC-007-004-----0
  6
AUSGEZOGEN
 62
           1
100
AcDbLine
 10
642.333374
 20
236.086273
 30
0.0
 11
642.333374
 21
250.092514
 31
0.0
  0
LINE
  5
AE
100
AcDbEntity
  8
LC-007-004-----0
  6
AUSGEZOGEN
 62
           1
100
AcDbLine
 10
641.333374
 20
236.086273
 30
0.0
 11
641.333374
 21
250.092514
 31
0.0
  0
LINE
  5
AF
100
AcDbEntity
  8
LC-001-150-----0
  6
STRICHLINIE
 62
           2
100
AcDbLine
 10
656.363098
 20
246.092514
 30
0.0
 11
666.771118
 21
246.092514
 31
0.0
  0
LINE
  5
B0
100
AcDbEntity
  8
LC-007-004-----0
  6
AUSGEZOGEN
 62
           1
100
AcDbLine
 10
642.333374
 20
246.092514
 30
0.0
 11
641.333374
 21
246.092514
 31
0.0
  0
LINE
  5
B1
100
AcDbEntity
  8
LC-001-150-----0
  6
STRICHLINIE
 62
           2
100
AcDbLine
 10
656.363098
 20
238.092514
 30
0.0
 11
666.771118
 21
238.092514
 31
0.0
  0
LINE
  5
B2
100
AcDbEntity
  8
LC-001-150-----0
  6
STRICHLINIE
 62
           2
100
AcDbLine
 10
626.833374
 20
246.592514
 30
0.0
 11
641.333374
 21
246.592514
 31
0.0
  0
LINE
  5
B3
100
AcDbEntity
  8
LC-001-150-----0
  6
STRICHLINIE
 62
           2
100
AcDbLine
 10
626.833374
 20
237.592514
 30
0.0
 11
641.333374
 21
237.592514
 31
0.0
  0
LINE
  5
B4
100
AcDbEntity
  8
LC-001-150-----0
  6
STRICHLINIE
 62
           2
100
AcDbLine
 10
613.808289
 20
234.592514
 30
0.0
 11
626.833374
 21
234.592514
 31
0.0
  0
LINE
  5
B5
100
AcDbEntity
  8
LC-001-150-----0
  6
STRICHLINIE
 62
           2
100
AcDbLine
 10
598.333374
 20
249.592514
 30
0.0
 11
603.858398
 21
249.592514
 31
0.0
  0
LINE
  5
B6
100
AcDbEntity
  8
LC-001-150-----0
  6
STRICHLINIE
 62
           2
100
AcDbLine
 10
598.333374
 20
234.592514
 30
0.0
 11
603.858398
 21
234.592514
 31
0.0
  0
LINE
  5
B7
100
AcDbEntity
  8
LC-007-004-----0
  6
AUSGEZOGEN
 62
           1
100
AcDbLine
 10
742.149353
 20
407.345917
 30
0.0
 11
755.805054
 21
407.345917
 31
0.0
  0
LINE
  5
B8
100
AcDbEntity
  8
LC-001-150-----0
  6
AUSGEZOGEN
 62
           2
100
AcDbLine
 10
642.333374
 20
245.280014
 30
0.0
 11
641.333374
 21
245.280014
 31
0.0
  0
LINE
  5
B9
100
AcDbEntity
  8
LC-001-150-----0
  6
STRICHLINIE
 62
           2
100
AcDbLine
 10
666.416748
 20
245.280014
 30
0.0
 11
656.832214
 21
245.280014
 31
0.0
  0
LINE
  5
BA
100
AcDbEntity
  8
LC-001-150-----0
  6
STRICHLINIE
 62
           2
100
AcDbLine
 10
656.832214
 20
245.280014
 30
0.0
 11
630.582214
 21
245.280014
 31
0.0
  0
LINE
  5
BB
100
AcDbEntity
  8
LC-001-150-----0
  6
STRICHLINIE
 62
           2
100
AcDbLine
 10
666.416748
 20
238.905014
 30
0.0
 11
656.832214
 21
238.905014
 31
0.0
  0
LINE
  5
BC
100
AcDbEntity
  8
LC-001-150-----0
  6
STRICHLINIE
 62
           2
100
AcDbLine
 10
656.832214
 20
238.905014
 30
0.0
 11
630.582214
 21
238.905014
 31
0.0
  0
LINE
  5
BD
100
AcDbEntity
  8
LC-001-150-----0
  6
STRICHLINIE
 62
           2
100
AcDbLine
 10
641.333374
 20
238.092514
 30
0.0
 11
642.333374
 21
238.092514
 31
0.0
  0
LINE
  5
BE
100
AcDbEntity
  8
LC-007-004-----0
  6
AUSGEZOGEN
 62
           1
100
AcDbLine
 10
642.333374
 20
238.092514
 30
0.0
 11
641.333374
 21
238.092514
 31
0.0
  0
LINE
  5
BF
100
AcDbEntity
  8
LC-001-150-----0
  6
AUSGEZOGEN
 62
           2
100
AcDbLine
 10
642.333374
 20
238.905014
 30
0.0
 11
641.333374
 21
238.905014
 31
0.0
  0
LINE
  5
C0
100
AcDbEntity
  8
LC-001-150-----0
  6
STRICHLINIE
 62
           2
100
AcDbLine
 10
626.832214
 20
249.592514
 30
0.0
 11
626.832214
 21
234.592514
 31
0.0
  0
LINE
  5
C1
100
AcDbEntity
  8
LC-001-150-----0
  6
STRICHLINIE
 62
           2
100
AcDbLine
 10
620.132202
 20
248.592514
 30
0.0
 11
626.832214
 21
248.592514
 31
0.0
  0
ARC
  5
C2
100
AcDbEntity
  8
LC-001-150-----0
  6
STRICHLINIE
 62
           2
100
AcDbCircle
 10
620.132202
 20
247.292511
 30
0.0
 40
1.3
100
AcDbArc
 50
90.000003
 51
180.000009
  0
LINE
  5
C3
100
AcDbEntity
  8
LC-001-150-----0
  6
STRICHLINIE
 62
           2
100
AcDbLine
 10
618.832214
 20
236.892517
 30
0.0
 11
618.832214
 21
247.292511
 31
0.0
  0
LINE
  5
C4
100
AcDbEntity
  8
LC-001-150-----0
  6
STRICHLINIE
 62
           2
100
AcDbLine
 10
620.132202
 20
235.592514
 30
0.0
 11
626.832214
 21
235.592514
 31
0.0
  0
ARC
  5
C5
100
AcDbEntity
  8
LC-001-150-----0
  6
STRICHLINIE
 62
           2
100
AcDbCircle
 10
620.132202
 20
236.892517
 30
0.0
 40
1.3
100
AcDbArc
 50
180.000009
 51
269.999997
  0
LINE
  5
C6
100
AcDbEntity
  8
LC-001-150-----0
  6
STRICHLINIE
 62
           2
100
AcDbLine
 10
656.363098
 20
238.092514
 30
0.0
 11
656.832214
 21
238.905014
 31
0.0
  0
LINE
  5
C7
100
AcDbEntity
  8
LC-001-150-----0
  6
STRICHLINIE
 62
           2
100
AcDbLine
 10
656.363098
 20
246.092514
 30
0.0
 11
656.832214
 21
245.280014
 31
0.0
  0
LINE
  5
C8
100
AcDbEntity
  8
LC-001-150-----0
  6
STRICHLINIE
 62
           2
100
AcDbLine
 10
642.333374
 20
246.092514
 30
0.0
 11
656.363098
 21
246.092514
 31
0.0
  0
LINE
  5
C9
100
AcDbEntity
  8
LC-001-150-----0
  6
STRICHLINIE
 62
           2
100
AcDbLine
 10
626.832214
 20
246.092514
 30
0.0
 11
641.333374
 21
246.092514
 31
0.0
  0
LINE
  5
CA
100
AcDbEntity
  8
LC-001-150-----0
  6
STRICHLINIE
 62
           2
100
AcDbLine
 10
642.333374
 20
238.092514
 30
0.0
 11
656.363098
 21
238.092514
 31
0.0
  0
LINE
  5
CB
100
AcDbEntity
  8
LC-001-150-----0
  6
STRICHLINIE
 62
           2
100
AcDbLine
 10
626.832214
 20
238.092514
 30
0.0
 11
641.333374
 21
238.092514
 31
0.0
  0
LINE
  5
CC
100
AcDbEntity
  8
LC-001-150-----0
  6
STRICHLINIE
 62
           2
100
AcDbLine
 10
656.832214
 20
245.280014
 30
0.0
 11
656.832214
 21
238.905014
 31
0.0
  0
LINE
  5
CD
100
AcDbEntity
  8
LC-001-150-----0
  6
STRICHLINIE
 62
           2
100
AcDbLine
 10
656.363098
 20
246.092514
 30
0.0
 11
656.363098
 21
238.092514
 31
0.0
  0
LINE
  5
CE
100
AcDbEntity
  8
LC-001-150-----0
  6
STRICHLINIE
 62
           2
100
AcDbLine
 10
630.582214
 20
246.092514
 30
0.0
 11
630.582214
 21
238.092514
 31
0.0
  0
LINE
  5
CF
100
AcDbEntity
  8
LC-007-004-----0
  6
AUSGEZOGEN
 62
           1
100
AcDbLine
 10
673.333374
 20
262.092529
 30
0.0
 11
673.333374
 21
250.966629
 31
0.0
  0
LINE
  5
D0
100
AcDbEntity
  8
LC-007-004-----0
  6
AUSGEZOGEN
 62
           1
100
AcDbLine
 10
610.333374
 20
262.092529
 30
0.0
 11
610.333374
 21
250.966629
 31
0.0
  0
LINE
  5
D1
100
AcDbEntity
  8
LC-007-004-----0
  6
AUSGEZOGEN
 62
           1
100
AcDbLine
 10
768.493652
 20
407.345917
 30
0.0
 11
782.149353
 21
407.345917
 31
0.0
  0
LINE
  5
D2
100
AcDbEntity
  8
LC-007-004-----0
  6
AUSGEZOGEN
 62
           1
100
AcDbLine
 10
673.333374
 20
233.218399
 30
0.0
 11
673.333374
 21
222.092514
 31
0.0
  0
LINE
  5
D3
100
AcDbEntity
  8
LC-007-004-----0
  6
AUSGEZOGEN
 62
           1
100
AcDbLine
 10
610.333374
 20
233.218399
 30
0.0
 11
610.333374
 21
222.092514
 31
0.0
  0
LINE
  5
D4
100
AcDbEntity
  8
LC-001-150-----0
  6
STRICHLINIE
 62
           2
100
AcDbLine
 10
599.833374
 20
403.845917
 30
0.0
 11
598.333374
 21
403.845917
 31
0.0
  0
ENDSEC
  0
SECTION
  2
OBJECTS
  0
DICTIONARY
  5
19
100
AcDbDictionary
  3
ACAD_GROUP
350
1A
  3
ACAD_MLINESTYLE
350
1B
  0
DICTIONARY
  5
1A
102
{ACAD_REACTORS
330
19
102
}
100
AcDbDictionary
  0
DICTIONARY
  5
1B
102
{ACAD_REACTORS
330
19
102
}
100
AcDbDictionary
  3
STANDARD
350
1C
  0
MLINESTYLE
  5
1C
102
{ACAD_REACTORS
330
1B
102
}
100
AcDbMlineStyle
  2
STANDARD
 70
           0
  3

 62
           0
 51
90.0
 52
90.0
 71
           2
 49
0.5
 62
         256
  6
BYLAYER
 49
-0.5
 62
         256
  6
BYLAYER
  0
ENDSEC
  0
EOF
