  0
SECTION
  2
HEADER
  9
$LIMMIN
 10
-115.776062
 20
399.943604
  9
$LIMMAX
 10
325.483490
 20
438.226410
  9
$EXTMIN
 10
-115.776062
 20
399.943604
  9
$EXTMAX
 10
325.483490
 20
438.226410
  0
ENDSEC
  0
SECTION
  2
TABLES
  0
TABLE
  2
LTYPE
 70
     3
  0
LTYPE
  2
CONTINUOUS
 70
    64
  3
Ausgezogene Linie
 72
    65
 73
     0
 40
0.0
  0
LTYPE
  2
DASHED
 70
    64
  3
__ __ __ __ __ __ __ __ __ __ __ __ __ __ __
 72
    65
 73
     2
 40
0.75
 49
0.5
 49
-0.25
  0
LTYPE
  2
DASHDOT
 70
    64
  3
__ . __ . __ . __ . __ . __ . __ . __ . __ . __
 72
    65
 73
     4
 40
1.0
 49
0.5
 49
-0.25
 49
0.0
 49
-0.25
  0
ENDTAB
  0
TABLE
  2
LAYER
 70
     5
  0
LAYER
  2
LC-INFO-1-1-MM-A0-0
 70
    64
 62
     7
  6
CONTINUOUS
  0
LAYER
  2
LC-003-002-----0
 70
    64
 62
     7
  6
CONTINUOUS
  0
LAYER
  2
LC-001-150-----0
 70
    64
 62
     7
  6
CONTINUOUS
  0
LAYER
  2
LC-003-150-MLN-0
 70
    64
 62
     7
  6
CONTINUOUS
  0
LAYER
  2
LC-004-160-----0
 70
    64
 62
     7
  6
CONTINUOUS
  0
ENDTAB
  0
TABLE
  2
STYLE
 70
     1
  0
STYLE
  2
TXT8
 70
    64
 40
0.0
 41
1.0
 50
0.0
 71
     0
 42
3.500000
  3
TXT8
  4

  0
ENDTAB
  0
ENDSEC
  0
SECTION
  2
BLOCKS
  0
ENDSEC
  0
SECTION
  2
ENTITIES
  0
LINE
  8
LC-004-160-----0
 62
     2
  6
CONTINUOUS
 10
137.623306
 20
435.259064
 11
137.623306
 21
435.259064
  0
LINE
  8
LC-004-160-----0
 62
     2
  6
CONTINUOUS
 10
137.623306
 20
435.259064
 11
137.895447
 21
431.619415
  0
LINE
  8
LC-004-160-----0
 62
     2
  6
CONTINUOUS
 10
137.895447
 20
431.619415
 11
137.895447
 21
431.619415
  0
LINE
  8
LC-004-160-----0
 62
     2
  6
CONTINUOUS
 10
137.895447
 20
431.619415
 11
137.623306
 21
428.759064
  0
LINE
  8
LC-004-160-----0
 62
     2
  6
CONTINUOUS
 10
133.803268
 20
435.259064
 11
133.803268
 21
435.259064
  0
LINE
  8
LC-004-160-----0
 62
     2
  6
CONTINUOUS
 10
133.803268
 20
435.259064
 11
133.562546
 21
431.377441
  0
LINE
  8
LC-004-160-----0
 62
     2
  6
CONTINUOUS
 10
133.562546
 20
431.377441
 11
133.562546
 21
431.377441
  0
LINE
  8
LC-004-160-----0
 62
     2
  6
CONTINUOUS
 10
133.562546
 20
431.377441
 11
133.116913
 21
428.759064
  0
LINE
  8
LC-004-160-----0
 62
     2
  6
CONTINUOUS
 10
137.623306
 20
428.759064
 11
136.826752
 21
427.371552
  0
LINE
  8
LC-004-160-----0
 62
     2
  6
CONTINUOUS
 10
136.826752
 20
427.371552
 11
135.733536
 21
424.597748
  0
LINE
  8
LC-004-160-----0
 62
     2
  6
CONTINUOUS
 10
135.733536
 20
424.597748
 11
135.898163
 21
421.543335
  0
LINE
  8
LC-004-160-----0
 62
     2
  6
CONTINUOUS
 10
135.898163
 20
421.543335
 11
136.315002
 21
418.879456
  0
LINE
  8
LC-004-160-----0
 62
     2
  6
CONTINUOUS
 10
136.315002
 20
418.879456
 11
136.315002
 21
418.879456
  0
LINE
  8
LC-004-160-----0
 62
     2
  6
CONTINUOUS
 10
136.315002
 20
418.879456
 11
135.733536
 21
416.130310
  0
LINE
  8
LC-004-160-----0
 62
     2
  6
CONTINUOUS
 10
135.733536
 20
416.130310
 11
135.733536
 21
416.130310
  0
LINE
  8
LC-004-160-----0
 62
     2
  6
CONTINUOUS
 10
135.733536
 20
416.130310
 11
136.315002
 21
412.759064
  0
LINE
  8
LC-004-160-----0
 62
     2
  6
CONTINUOUS
 10
136.315002
 20
412.759064
 11
136.315002
 21
412.759064
  0
LINE
  8
LC-004-160-----0
 62
     2
  6
CONTINUOUS
 10
136.315002
 20
412.759064
 11
136.605728
 21
411.759064
  0
LINE
  8
LC-004-160-----0
 62
     2
  6
CONTINUOUS
 10
136.605728
 20
411.759064
 11
137.393448
 21
409.264099
  0
LINE
  8
LC-004-160-----0
 62
     2
  6
CONTINUOUS
 10
137.393448
 20
409.264099
 11
137.623306
 21
406.893097
  0
LINE
  8
LC-004-160-----0
 62
     2
  6
CONTINUOUS
 10
137.623306
 20
406.893097
 11
137.623306
 21
406.893097
  0
LINE
  8
LC-004-160-----0
 62
     2
  6
CONTINUOUS
 10
137.623306
 20
406.893097
 11
136.896469
 21
404.253876
  0
LINE
  8
LC-004-160-----0
 62
     2
  6
CONTINUOUS
 10
136.896469
 20
404.253876
 11
136.896469
 21
404.253876
  0
LINE
  8
LC-004-160-----0
 62
     2
  6
CONTINUOUS
 10
136.896469
 20
404.253876
 11
136.896469
 21
401.759064
  0
LINE
  8
LC-004-160-----0
 62
     2
  6
CONTINUOUS
 10
133.116913
 20
428.759064
 11
132.320358
 21
427.371552
  0
LINE
  8
LC-004-160-----0
 62
     2
  6
CONTINUOUS
 10
132.320358
 20
427.371552
 11
131.227142
 21
424.597748
  0
LINE
  8
LC-004-160-----0
 62
     2
  6
CONTINUOUS
 10
131.227142
 20
424.597748
 11
131.391785
 21
421.543335
  0
LINE
  8
LC-004-160-----0
 62
     2
  6
CONTINUOUS
 10
131.391785
 20
421.543335
 11
131.808609
 21
418.879456
  0
LINE
  8
LC-004-160-----0
 62
     2
  6
CONTINUOUS
 10
131.808609
 20
418.879456
 11
131.808609
 21
418.879456
  0
LINE
  8
LC-004-160-----0
 62
     2
  6
CONTINUOUS
 10
131.808609
 20
418.879456
 11
131.227142
 21
416.130310
  0
LINE
  8
LC-004-160-----0
 62
     2
  6
CONTINUOUS
 10
131.227142
 20
416.130310
 11
131.227142
 21
416.130310
  0
LINE
  8
LC-004-160-----0
 62
     2
  6
CONTINUOUS
 10
131.227142
 20
416.130310
 11
131.808609
 21
412.759064
  0
LINE
  8
LC-004-160-----0
 62
     2
  6
CONTINUOUS
 10
131.808609
 20
412.759064
 11
131.808609
 21
412.759064
  0
LINE
  8
LC-004-160-----0
 62
     2
  6
CONTINUOUS
 10
131.808609
 20
412.759064
 11
132.099350
 21
411.759064
  0
LINE
  8
LC-004-160-----0
 62
     2
  6
CONTINUOUS
 10
132.099350
 20
411.759064
 11
132.887054
 21
409.264099
  0
LINE
  8
LC-004-160-----0
 62
     2
  6
CONTINUOUS
 10
132.887054
 20
409.264099
 11
133.116913
 21
406.893097
  0
LINE
  8
LC-004-160-----0
 62
     2
  6
CONTINUOUS
 10
133.116913
 20
406.893097
 11
133.116913
 21
406.893097
  0
LINE
  8
LC-004-160-----0
 62
     2
  6
CONTINUOUS
 10
133.116913
 20
406.893097
 11
132.390076
 21
404.253876
  0
LINE
  8
LC-004-160-----0
 62
     2
  6
CONTINUOUS
 10
132.390076
 20
404.253876
 11
132.390076
 21
404.253876
  0
LINE
  8
LC-004-160-----0
 62
     2
  6
CONTINUOUS
 10
132.390076
 20
404.253876
 11
132.390076
 21
401.759064
  0
LINE
  8
LC-003-002-----0
 62
     1
  6
CONTINUOUS
 10
-95.908501
 20
409.759064
 11
-95.908501
 21
401.759064
  0
LINE
  8
LC-003-002-----0
 62
     1
  6
CONTINUOUS
 10
324.060883
 20
401.759064
 11
324.060883
 21
416.217194
  0
LINE
  8
LC-003-002-----0
 62
     1
  6
CONTINUOUS
 10
-53.348427
 20
434.759064
 11
-53.348427
 21
416.217194
  0
LINE
  8
LC-003-002-----0
 62
     1
  6
CONTINUOUS
 10
-111.908501
 20
401.759064
 11
-95.908501
 21
401.759064
  0
LINE
  8
LC-003-002-----0
 62
     1
  6
CONTINUOUS
 10
-111.908501
 20
409.759064
 11
-111.908501
 21
401.759064
  0
LINE
  8
LC-003-002-----0
 62
     1
  6
CONTINUOUS
 10
133.803268
 20
435.259064
 11
-52.848431
 21
435.259064
  0
LINE
  8
LC-001-150-----0
 62
     2
  6
DASHDOT
 10
-115.776062
 20
425.259064
 11
-92.482315
 21
425.259064
  0
LINE
  8
LC-001-150-----0
 62
     2
  6
DASHDOT
 10
-103.908501
 20
436.889038
 11
-103.908501
 21
399.943604
  0
CIRCLE
  8
LC-003-002-----0
 62
     1
  6
CONTINUOUS
 10
-103.908501
 20
425.259064
 40
10.000000
  0
CIRCLE
  8
LC-003-002-----0
 62
     1
  6
CONTINUOUS
 10
-103.908501
 20
425.259064
 40
9.500000
  0
LINE
  8
LC-003-002-----0
 62
     1
  6
CONTINUOUS
 10
-99.637108
 20
416.217194
 11
-95.908501
 21
409.759064
  0
LINE
  8
LC-003-002-----0
 62
     1
  6
CONTINUOUS
 10
-108.179893
 20
416.217194
 11
-111.908501
 21
409.759064
  0
LINE
  8
LC-003-002-----0
 62
     1
  6
CONTINUOUS
 10
-53.348427
 20
401.759064
 11
132.390076
 21
401.759064
  0
LINE
  8
LC-001-150-----0
 62
     2
  6
DASHDOT
 10
-54.771038
 20
425.259064
 11
325.483490
 21
425.259064
  0
LINE
  8
LC-001-150-----0
 62
     2
  6
DASHDOT
 10
-43.348427
 20
400.468140
 11
-43.348427
 21
438.226410
  0
LINE
  8
LC-001-150-----0
 62
     2
  6
DASHDOT
 10
106.651573
 20
400.468140
 11
106.651573
 21
438.226410
  0
LINE
  8
LC-001-150-----0
 62
     2
  6
DASHDOT
 10
314.060883
 20
400.468140
 11
314.060883
 21
438.226410
  0
LINE
  8
LC-001-150-----0
 62
     2
  6
DASHDOT
 10
164.060883
 20
400.468140
 11
164.060883
 21
438.226410
  0
LINE
  8
LC-003-002-----0
 62
     1
  6
CONTINUOUS
 10
136.896469
 20
401.759064
 11
324.060883
 21
401.759064
  0
LINE
  8
LC-003-002-----0
 62
     1
  6
CONTINUOUS
 10
137.623306
 20
435.259064
 11
323.560883
 21
435.259064
  0
LINE
  8
LC-003-002-----0
 62
     1
  6
CONTINUOUS
 10
-53.348427
 20
409.759064
 11
132.728958
 21
409.759064
  0
LINE
  8
LC-003-002-----0
 62
     1
  6
CONTINUOUS
 10
-53.348427
 20
416.217194
 11
131.246979
 21
416.217194
  0
LINE
  8
LC-003-002-----0
 62
     1
  6
CONTINUOUS
 10
-52.848427
 20
435.259064
 11
-53.348427
 21
434.759064
  0
LINE
  8
LC-003-002-----0
 62
     1
  6
CONTINUOUS
 10
-52.848427
 20
416.217194
 11
-52.848427
 21
435.259064
  0
LINE
  8
LC-003-002-----0
 62
     1
  6
CONTINUOUS
 10
323.560883
 20
435.259064
 11
324.060883
 21
434.759064
  0
LINE
  8
LC-003-002-----0
 62
     1
  6
CONTINUOUS
 10
323.560883
 20
435.259064
 11
323.560883
 21
416.217194
  0
LINE
  8
LC-003-002-----0
 62
     1
  6
CONTINUOUS
 10
137.247086
 20
409.759064
 11
324.060883
 21
409.759064
  0
LINE
  8
LC-003-002-----0
 62
     1
  6
CONTINUOUS
 10
135.756821
 20
416.217194
 11
324.060883
 21
416.217194
  0
LINE
  8
LC-003-150-MLN-0
 62
     2
  6
DASHED
 10
103.651436
 20
426.217194
 11
109.651436
 21
426.217194
  0
LINE
  8
LC-003-150-MLN-0
 62
     2
  6
DASHED
 10
109.001434
 20
423.017212
 11
109.001434
 21
429.317200
  0
LINE
  8
LC-003-150-MLN-0
 62
     2
  6
DASHED
 10
101.651436
 20
411.017212
 11
111.651436
 21
411.017212
  0
LINE
  8
LC-003-150-MLN-0
 62
     2
  6
DASHED
 10
101.651436
 20
406.017212
 11
101.651436
 21
411.017212
  0
ARC
  8
LC-003-150-MLN-0
 62
     2
  6
DASHED
 10
102.651436
 20
406.017212
 40
1.000000
 50
180.000009
 51
269.999997
  0
LINE
  8
LC-003-150-MLN-0
 62
     2
  6
DASHED
 10
110.651436
 20
405.017212
 11
102.651436
 21
405.017212
  0
LINE
  8
LC-003-150-MLN-0
 62
     2
  6
DASHED
 10
111.651436
 20
406.017212
 11
111.651436
 21
411.017212
  0
ARC
  8
LC-003-150-MLN-0
 62
     2
  6
DASHED
 10
110.651436
 20
406.017212
 40
1.000000
 50
269.999997
 51
0.000000
  0
LINE
  8
LC-003-150-MLN-0
 62
     2
  6
DASHED
 10
109.651436
 20
422.641937
 11
109.001434
 21
423.017212
  0
LINE
  8
LC-003-150-MLN-0
 62
     2
  6
DASHED
 10
104.301437
 20
423.017212
 11
109.001434
 21
423.017212
  0
LINE
  8
LC-003-150-MLN-0
 62
     2
  6
DASHED
 10
103.651436
 20
422.641937
 11
104.301437
 21
423.017212
  0
LINE
  8
LC-003-150-MLN-0
 62
     2
  6
DASHED
 10
103.651436
 20
411.017212
 11
103.651436
 21
422.641937
  0
LINE
  8
LC-003-150-MLN-0
 62
     2
  6
DASHED
 10
109.651436
 20
411.017212
 11
109.651436
 21
422.641937
  0
LINE
  8
LC-003-150-MLN-0
 62
     2
  6
DASHED
 10
103.351440
 20
411.017212
 11
103.351440
 21
416.217194
  0
LINE
  8
LC-003-150-MLN-0
 62
     2
  6
DASHED
 10
103.651436
 20
414.017212
 11
109.651436
 21
414.017212
  0
LINE
  8
LC-003-150-MLN-0
 62
     2
  6
DASHED
 10
103.651436
 20
422.641937
 11
109.651436
 21
422.641937
  0
LINE
  8
LC-003-150-MLN-0
 62
     2
  6
DASHED
 10
109.951439
 20
411.017212
 11
109.951439
 21
416.217194
  0
LINE
  8
LC-003-150-MLN-0
 62
     2
  6
DASHED
 10
109.001434
 20
429.317200
 11
106.651436
 21
430.673981
  0
LINE
  8
LC-003-150-MLN-0
 62
     2
  6
DASHED
 10
104.301437
 20
429.317200
 11
106.651436
 21
430.673981
  0
LINE
  8
LC-003-150-MLN-0
 62
     2
  6
DASHED
 10
104.301437
 20
423.017212
 11
104.301437
 21
429.317200
  0
LINE
  8
LC-003-150-MLN-0
 62
     2
  6
DASHED
 10
-108.908638
 20
411.017212
 11
-98.908638
 21
411.017212
  0
LINE
  8
LC-003-150-MLN-0
 62
     2
  6
DASHED
 10
103.651436
 20
426.217194
 11
103.651436
 21
422.641937
  0
LINE
  8
LC-003-150-MLN-0
 62
     2
  6
DASHED
 10
104.301437
 20
429.317200
 11
109.001434
 21
429.317200
  0
LINE
  8
LC-003-150-MLN-0
 62
     2
  6
DASHED
 10
104.301437
 20
423.017212
 11
104.301437
 21
414.017212
  0
LINE
  8
LC-003-150-MLN-0
 62
     2
  6
DASHED
 10
109.651436
 20
426.217194
 11
109.651436
 21
422.641937
  0
LINE
  8
LC-003-150-MLN-0
 62
     2
  6
DASHED
 10
109.001434
 20
423.017212
 11
109.001434
 21
414.017212
  0
LINE
  8
LC-003-150-MLN-0
 62
     2
  6
DASHED
 10
101.151436
 20
401.759064
 11
101.151436
 21
411.017212
  0
LINE
  8
LC-003-150-MLN-0
 62
     2
  6
DASHED
 10
112.151436
 20
401.759064
 11
112.151436
 21
411.017212
  0
LINE
  8
LC-003-150-MLN-0
 62
     2
  6
DASHED
 10
161.060745
 20
426.217194
 11
167.060745
 21
426.217194
  0
LINE
  8
LC-003-150-MLN-0
 62
     2
  6
DASHED
 10
166.410751
 20
423.017212
 11
166.410751
 21
429.317200
  0
LINE
  8
LC-003-150-MLN-0
 62
     2
  6
DASHED
 10
159.060745
 20
411.017212
 11
169.060745
 21
411.017212
  0
LINE
  8
LC-003-150-MLN-0
 62
     2
  6
DASHED
 10
159.060745
 20
406.017212
 11
159.060745
 21
411.017212
  0
ARC
  8
LC-003-150-MLN-0
 62
     2
  6
DASHED
 10
160.060745
 20
406.017212
 40
1.000000
 50
180.000009
 51
269.999997
  0
LINE
  8
LC-003-150-MLN-0
 62
     2
  6
DASHED
 10
168.060745
 20
405.017212
 11
160.060745
 21
405.017212
  0
LINE
  8
LC-003-150-MLN-0
 62
     2
  6
DASHED
 10
169.060745
 20
406.017212
 11
169.060745
 21
411.017212
  0
ARC
  8
LC-003-150-MLN-0
 62
     2
  6
DASHED
 10
168.060745
 20
406.017212
 40
1.000000
 50
269.999997
 51
0.000000
  0
LINE
  8
LC-003-150-MLN-0
 62
     2
  6
DASHED
 10
167.060745
 20
422.641937
 11
166.410751
 21
423.017212
  0
LINE
  8
LC-003-150-MLN-0
 62
     2
  6
DASHED
 10
161.710754
 20
423.017212
 11
166.410751
 21
423.017212
  0
LINE
  8
LC-003-150-MLN-0
 62
     2
  6
DASHED
 10
161.060745
 20
422.641937
 11
161.710754
 21
423.017212
  0
LINE
  8
LC-003-150-MLN-0
 62
     2
  6
DASHED
 10
161.060745
 20
411.017212
 11
161.060745
 21
422.641937
  0
LINE
  8
LC-003-150-MLN-0
 62
     2
  6
DASHED
 10
167.060745
 20
411.017212
 11
167.060745
 21
422.641937
  0
LINE
  8
LC-003-150-MLN-0
 62
     2
  6
DASHED
 10
160.760757
 20
411.017212
 11
160.760757
 21
416.217194
  0
LINE
  8
LC-003-150-MLN-0
 62
     2
  6
DASHED
 10
161.060745
 20
414.017212
 11
167.060745
 21
414.017212
  0
LINE
  8
LC-003-150-MLN-0
 62
     2
  6
DASHED
 10
161.060745
 20
422.641937
 11
167.060745
 21
422.641937
  0
LINE
  8
LC-003-150-MLN-0
 62
     2
  6
DASHED
 10
167.360748
 20
411.017212
 11
167.360748
 21
416.217194
  0
LINE
  8
LC-003-150-MLN-0
 62
     2
  6
DASHED
 10
166.410751
 20
429.317200
 11
164.060745
 21
430.673981
  0
LINE
  8
LC-003-150-MLN-0
 62
     2
  6
DASHED
 10
161.710754
 20
429.317200
 11
164.060745
 21
430.673981
  0
LINE
  8
LC-003-150-MLN-0
 62
     2
  6
DASHED
 10
161.710754
 20
423.017212
 11
161.710754
 21
429.317200
  0
LINE
  8
LC-003-150-MLN-0
 62
     2
  6
DASHED
 10
161.060745
 20
426.217194
 11
161.060745
 21
422.641937
  0
LINE
  8
LC-003-150-MLN-0
 62
     2
  6
DASHED
 10
161.710754
 20
429.317200
 11
166.410751
 21
429.317200
  0
LINE
  8
LC-003-150-MLN-0
 62
     2
  6
DASHED
 10
161.710754
 20
423.017212
 11
161.710754
 21
414.017212
  0
LINE
  8
LC-003-150-MLN-0
 62
     2
  6
DASHED
 10
167.060745
 20
426.217194
 11
167.060745
 21
422.641937
  0
LINE
  8
LC-003-150-MLN-0
 62
     2
  6
DASHED
 10
166.410751
 20
423.017212
 11
166.410751
 21
414.017212
  0
LINE
  8
LC-003-150-MLN-0
 62
     2
  6
DASHED
 10
-46.348560
 20
426.217194
 11
-40.348560
 21
426.217194
  0
LINE
  8
LC-003-150-MLN-0
 62
     2
  6
DASHED
 10
-40.998562
 20
423.017212
 11
-40.998562
 21
429.317200
  0
LINE
  8
LC-003-150-MLN-0
 62
     2
  6
DASHED
 10
158.560745
 20
401.759064
 11
158.560745
 21
411.017212
  0
LINE
  8
LC-003-150-MLN-0
 62
     2
  6
DASHED
 10
-48.348560
 20
411.017212
 11
-38.348560
 21
411.017212
  0
LINE
  8
LC-003-150-MLN-0
 62
     2
  6
DASHED
 10
-48.348560
 20
406.017212
 11
-48.348560
 21
411.017212
  0
ARC
  8
LC-003-150-MLN-0
 62
     2
  6
DASHED
 10
-47.348560
 20
406.017212
 40
1.000000
 50
180.000009
 51
269.999997
  0
LINE
  8
LC-003-150-MLN-0
 62
     2
  6
DASHED
 10
-39.348560
 20
405.017212
 11
-47.348560
 21
405.017212
  0
LINE
  8
LC-003-150-MLN-0
 62
     2
  6
DASHED
 10
-38.348560
 20
406.017212
 11
-38.348560
 21
411.017212
  0
ARC
  8
LC-003-150-MLN-0
 62
     2
  6
DASHED
 10
-39.348560
 20
406.017212
 40
1.000000
 50
269.999997
 51
0.000000
  0
LINE
  8
LC-003-150-MLN-0
 62
     2
  6
DASHED
 10
-40.348560
 20
422.641937
 11
-40.998562
 21
423.017212
  0
LINE
  8
LC-003-150-MLN-0
 62
     2
  6
DASHED
 10
-45.698563
 20
423.017212
 11
-40.998562
 21
423.017212
  0
LINE
  8
LC-003-150-MLN-0
 62
     2
  6
DASHED
 10
-46.348560
 20
422.641937
 11
-45.698563
 21
423.017212
  0
LINE
  8
LC-003-150-MLN-0
 62
     2
  6
DASHED
 10
-46.348560
 20
411.017212
 11
-46.348560
 21
422.641937
  0
LINE
  8
LC-003-150-MLN-0
 62
     2
  6
DASHED
 10
-40.348560
 20
411.017212
 11
-40.348560
 21
422.641937
  0
LINE
  8
LC-003-150-MLN-0
 62
     2
  6
DASHED
 10
-46.648563
 20
411.017212
 11
-46.648563
 21
416.217194
  0
LINE
  8
LC-003-150-MLN-0
 62
     2
  6
DASHED
 10
-46.348560
 20
414.017212
 11
-40.348560
 21
414.017212
  0
LINE
  8
LC-003-150-MLN-0
 62
     2
  6
DASHED
 10
-46.348560
 20
422.641937
 11
-40.348560
 21
422.641937
  0
LINE
  8
LC-003-150-MLN-0
 62
     2
  6
DASHED
 10
-40.048561
 20
411.017212
 11
-40.048561
 21
416.217194
  0
LINE
  8
LC-003-150-MLN-0
 62
     2
  6
DASHED
 10
-40.998562
 20
429.317200
 11
-43.348560
 21
430.673981
  0
LINE
  8
LC-003-150-MLN-0
 62
     2
  6
DASHED
 10
-45.698563
 20
429.317200
 11
-43.348560
 21
430.673981
  0
LINE
  8
LC-003-150-MLN-0
 62
     2
  6
DASHED
 10
-45.698563
 20
423.017212
 11
-45.698563
 21
429.317200
  0
LINE
  8
LC-003-150-MLN-0
 62
     2
  6
DASHED
 10
-46.348560
 20
426.217194
 11
-46.348560
 21
422.641937
  0
LINE
  8
LC-003-150-MLN-0
 62
     2
  6
DASHED
 10
-45.698563
 20
429.317200
 11
-40.998562
 21
429.317200
  0
LINE
  8
LC-003-002-----0
 62
     1
  6
CONTINUOUS
 10
-53.348427
 20
416.217194
 11
-53.348427
 21
401.759064
  0
LINE
  8
LC-003-150-MLN-0
 62
     2
  6
DASHED
 10
-45.698563
 20
423.017212
 11
-45.698563
 21
414.017212
  0
LINE
  8
LC-003-150-MLN-0
 62
     2
  6
DASHED
 10
-40.348560
 20
426.217194
 11
-40.348560
 21
422.641937
  0
LINE
  8
LC-003-150-MLN-0
 62
     2
  6
DASHED
 10
-40.998562
 20
423.017212
 11
-40.998562
 21
414.017212
  0
LINE
  8
LC-003-150-MLN-0
 62
     2
  6
DASHED
 10
-48.848560
 20
401.759064
 11
-48.848560
 21
411.017212
  0
LINE
  8
LC-003-150-MLN-0
 62
     2
  6
DASHED
 10
-37.848560
 20
401.759064
 11
-37.848560
 21
411.017212
  0
LINE
  8
LC-003-150-MLN-0
 62
     2
  6
DASHED
 10
169.560745
 20
401.759064
 11
169.560745
 21
411.017212
  0
LINE
  8
LC-003-150-MLN-0
 62
     2
  6
DASHED
 10
311.060760
 20
426.217194
 11
317.060760
 21
426.217194
  0
LINE
  8
LC-003-150-MLN-0
 62
     2
  6
DASHED
 10
316.410736
 20
423.017212
 11
316.410736
 21
429.317200
  0
LINE
  8
LC-003-150-MLN-0
 62
     2
  6
DASHED
 10
309.060760
 20
411.017212
 11
319.060760
 21
411.017212
  0
LINE
  8
LC-003-150-MLN-0
 62
     2
  6
DASHED
 10
309.060760
 20
406.017212
 11
309.060760
 21
411.017212
  0
ARC
  8
LC-003-150-MLN-0
 62
     2
  6
DASHED
 10
310.060760
 20
406.017212
 40
1.000000
 50
180.000009
 51
269.999997
  0
LINE
  8
LC-003-150-MLN-0
 62
     2
  6
DASHED
 10
318.060760
 20
405.017212
 11
310.060760
 21
405.017212
  0
LINE
  8
LC-003-150-MLN-0
 62
     2
  6
DASHED
 10
319.060760
 20
406.017212
 11
319.060760
 21
411.017212
  0
ARC
  8
LC-003-150-MLN-0
 62
     2
  6
DASHED
 10
318.060760
 20
406.017212
 40
1.000000
 50
269.999997
 51
0.000000
  0
LINE
  8
LC-003-150-MLN-0
 62
     2
  6
DASHED
 10
317.060760
 20
422.641937
 11
316.410736
 21
423.017212
  0
LINE
  8
LC-003-150-MLN-0
 62
     2
  6
DASHED
 10
311.710754
 20
423.017212
 11
316.410736
 21
423.017212
  0
LINE
  8
LC-003-150-MLN-0
 62
     2
  6
DASHED
 10
311.060760
 20
422.641937
 11
311.710754
 21
423.017212
  0
LINE
  8
LC-003-150-MLN-0
 62
     2
  6
DASHED
 10
311.060760
 20
411.017212
 11
311.060760
 21
422.641937
  0
LINE
  8
LC-003-150-MLN-0
 62
     2
  6
DASHED
 10
317.060760
 20
411.017212
 11
317.060760
 21
422.641937
  0
LINE
  8
LC-003-150-MLN-0
 62
     2
  6
DASHED
 10
310.760742
 20
411.017212
 11
310.760742
 21
416.217194
  0
LINE
  8
LC-003-150-MLN-0
 62
     2
  6
DASHED
 10
311.060760
 20
414.017212
 11
317.060760
 21
414.017212
  0
LINE
  8
LC-003-150-MLN-0
 62
     2
  6
DASHED
 10
311.060760
 20
422.641937
 11
317.060760
 21
422.641937
  0
LINE
  8
LC-003-150-MLN-0
 62
     2
  6
DASHED
 10
317.360748
 20
411.017212
 11
317.360748
 21
416.217194
  0
LINE
  8
LC-003-150-MLN-0
 62
     2
  6
DASHED
 10
316.410736
 20
429.317200
 11
314.060760
 21
430.673981
  0
LINE
  8
LC-003-150-MLN-0
 62
     2
  6
DASHED
 10
311.710754
 20
429.317200
 11
314.060760
 21
430.673981
  0
LINE
  8
LC-003-150-MLN-0
 62
     2
  6
DASHED
 10
311.710754
 20
423.017212
 11
311.710754
 21
429.317200
  0
LINE
  8
LC-003-150-MLN-0
 62
     2
  6
DASHED
 10
311.060760
 20
426.217194
 11
311.060760
 21
422.641937
  0
LINE
  8
LC-003-150-MLN-0
 62
     2
  6
DASHED
 10
311.710754
 20
429.317200
 11
316.410736
 21
429.317200
  0
LINE
  8
LC-003-150-MLN-0
 62
     2
  6
DASHED
 10
311.710754
 20
423.017212
 11
311.710754
 21
414.017212
  0
LINE
  8
LC-003-150-MLN-0
 62
     2
  6
DASHED
 10
317.060760
 20
426.217194
 11
317.060760
 21
422.641937
  0
LINE
  8
LC-003-150-MLN-0
 62
     2
  6
DASHED
 10
316.410736
 20
423.017212
 11
316.410736
 21
414.017212
  0
LINE
  8
LC-003-150-MLN-0
 62
     2
  6
DASHED
 10
308.560760
 20
401.759064
 11
308.560760
 21
411.017212
  0
LINE
  8
LC-003-150-MLN-0
 62
     2
  6
DASHED
 10
319.560760
 20
401.759064
 11
319.560760
 21
411.017212
  0
LINE
  8
LC-003-150-MLN-0
 62
     2
  6
DASHED
 10
-106.908638
 20
426.217194
 11
-100.908638
 21
426.217194
  0
LINE
  8
LC-003-150-MLN-0
 62
     2
  6
DASHED
 10
-101.558640
 20
423.017212
 11
-101.558640
 21
429.317200
  0
LINE
  8
LC-003-150-MLN-0
 62
     2
  6
DASHED
 10
-108.908638
 20
406.017212
 11
-108.908638
 21
411.017212
  0
ARC
  8
LC-003-150-MLN-0
 62
     2
  6
DASHED
 10
-107.908638
 20
406.017212
 40
1.000000
 50
180.000009
 51
269.999997
  0
LINE
  8
LC-003-150-MLN-0
 62
     2
  6
DASHED
 10
-99.908638
 20
405.017212
 11
-107.908638
 21
405.017212
  0
LINE
  8
LC-003-150-MLN-0
 62
     2
  6
DASHED
 10
-98.908638
 20
406.017212
 11
-98.908638
 21
411.017212
  0
ARC
  8
LC-003-150-MLN-0
 62
     2
  6
DASHED
 10
-99.908638
 20
406.017212
 40
1.000000
 50
269.999997
 51
0.000000
  0
LINE
  8
LC-003-150-MLN-0
 62
     2
  6
DASHED
 10
-100.908638
 20
422.641937
 11
-101.558640
 21
423.017212
  0
LINE
  8
LC-003-150-MLN-0
 62
     2
  6
DASHED
 10
-106.258636
 20
423.017212
 11
-101.558640
 21
423.017212
  0
LINE
  8
LC-003-150-MLN-0
 62
     2
  6
DASHED
 10
-106.908638
 20
422.641937
 11
-106.258636
 21
423.017212
  0
LINE
  8
LC-003-150-MLN-0
 62
     2
  6
DASHED
 10
-106.908638
 20
411.017212
 11
-106.908638
 21
422.641937
  0
LINE
  8
LC-003-150-MLN-0
 62
     2
  6
DASHED
 10
-100.908638
 20
411.017212
 11
-100.908638
 21
422.641937
  0
LINE
  8
LC-003-150-MLN-0
 62
     2
  6
DASHED
 10
-107.208641
 20
411.017212
 11
-107.208641
 21
415.819305
  0
LINE
  8
LC-003-150-MLN-0
 62
     2
  6
DASHED
 10
-106.908638
 20
414.017212
 11
-100.908638
 21
414.017212
  0
LINE
  8
LC-003-150-MLN-0
 62
     2
  6
DASHED
 10
-106.908638
 20
422.641937
 11
-100.908638
 21
422.641937
  0
LINE
  8
LC-003-150-MLN-0
 62
     2
  6
DASHED
 10
-100.608635
 20
411.017212
 11
-100.608635
 21
415.819214
  0
LINE
  8
LC-003-150-MLN-0
 62
     2
  6
DASHED
 10
-101.558640
 20
429.317200
 11
-103.908638
 21
430.673981
  0
LINE
  8
LC-003-150-MLN-0
 62
     2
  6
DASHED
 10
-106.258636
 20
429.317200
 11
-103.908638
 21
430.673981
  0
LINE
  8
LC-003-150-MLN-0
 62
     2
  6
DASHED
 10
-106.258636
 20
423.017212
 11
-106.258636
 21
429.317200
  0
LINE
  8
LC-003-150-MLN-0
 62
     2
  6
DASHED
 10
-106.908638
 20
426.217194
 11
-106.908638
 21
422.641937
  0
LINE
  8
LC-003-150-MLN-0
 62
     2
  6
DASHED
 10
-106.258636
 20
429.317200
 11
-101.558640
 21
429.317200
  0
LINE
  8
LC-003-002-----0
 62
     1
  6
CONTINUOUS
 10
324.060883
 20
416.217194
 11
324.060883
 21
434.759064
  0
LINE
  8
LC-003-150-MLN-0
 62
     2
  6
DASHED
 10
-106.258636
 20
423.017212
 11
-106.258636
 21
414.017212
  0
LINE
  8
LC-003-150-MLN-0
 62
     2
  6
DASHED
 10
-100.908638
 20
426.217194
 11
-100.908638
 21
422.641937
  0
LINE
  8
LC-003-150-MLN-0
 62
     2
  6
DASHED
 10
-101.558640
 20
423.017212
 11
-101.558640
 21
414.017212
  0
LINE
  8
LC-003-150-MLN-0
 62
     2
  6
DASHED
 10
-109.408638
 20
401.759064
 11
-109.408638
 21
411.017212
  0
LINE
  8
LC-003-150-MLN-0
 62
     2
  6
DASHED
 10
-98.408638
 20
401.759064
 11
-98.408638
 21
411.017212
  0
ENDSEC
  0
EOF
