  0
SECTION
  2
HEADER
  9
$LIMMIN
 10
-118.097221
 20
203.761444
  9
$LIMMAX
 10
325.483490
 20
245.465683
  9
$EXTMIN
 10
-118.097221
 20
203.761444
  9
$EXTMAX
 10
325.483490
 20
245.465683
  0
ENDSEC
  0
SECTION
  2
TABLES
  0
TABLE
  2
LTYPE
 70
     3
  0
LTYPE
  2
CONTINUOUS
 70
    64
  3
Ausgezogene Linie
 72
    65
 73
     0
 40
0.0
  0
LTYPE
  2
DASHED
 70
    64
  3
__ __ __ __ __ __ __ __ __ __ __ __ __ __ __
 72
    65
 73
     2
 40
0.75
 49
0.5
 49
-0.25
  0
LTYPE
  2
DASHDOT
 70
    64
  3
__ . __ . __ . __ . __ . __ . __ . __ . __ . __
 72
    65
 73
     4
 40
1.0
 49
0.5
 49
-0.25
 49
0.0
 49
-0.25
  0
ENDTAB
  0
TABLE
  2
LAYER
 70
     5
  0
LAYER
  2
LC-INFO-1-1-MM-A0-0
 70
    64
 62
     7
  6
CONTINUOUS
  0
LAYER
  2
LC-003-002-----0
 70
    64
 62
     7
  6
CONTINUOUS
  0
LAYER
  2
LC-001-150-----0
 70
    64
 62
     7
  6
CONTINUOUS
  0
LAYER
  2
LC-003-150-MLN-0
 70
    64
 62
     7
  6
CONTINUOUS
  0
LAYER
  2
LC-004-160-----0
 70
    64
 62
     7
  6
CONTINUOUS
  0
ENDTAB
  0
TABLE
  2
STYLE
 70
     1
  0
STYLE
  2
TXT8
 70
    64
 40
0.0
 41
1.0
 50
0.0
 71
     0
 42
3.500000
  3
TXT8
  4

  0
ENDTAB
  0
ENDSEC
  0
SECTION
  2
BLOCKS
  0
ENDSEC
  0
SECTION
  2
ENTITIES
  0
LINE
  8
LC-004-160-----0
 62
     2
  6
CONTINUOUS
 10
137.548889
 20
244.241013
 11
137.229950
 21
243.362656
  0
LINE
  8
LC-004-160-----0
 62
     2
  6
CONTINUOUS
 10
137.229950
 20
243.362656
 11
136.477783
 21
241.136520
  0
LINE
  8
LC-004-160-----0
 62
     2
  6
CONTINUOUS
 10
136.477783
 20
241.136520
 11
135.599411
 21
238.176025
  0
LINE
  8
LC-004-160-----0
 62
     2
  6
CONTINUOUS
 10
135.599411
 20
238.176025
 11
134.901825
 21
235.094620
  0
LINE
  8
LC-004-160-----0
 62
     2
  6
CONTINUOUS
 10
134.901825
 20
235.094620
 11
134.625824
 21
232.491531
  0
LINE
  8
LC-004-160-----0
 62
     2
  6
CONTINUOUS
 10
134.625824
 20
232.491531
 11
134.696671
 21
230.201935
  0
LINE
  8
LC-004-160-----0
 62
     2
  6
CONTINUOUS
 10
134.696671
 20
230.201935
 11
135.016373
 21
228.090210
  0
LINE
  8
LC-004-160-----0
 62
     2
  6
CONTINUOUS
 10
135.016373
 20
228.090210
 11
135.486954
 21
226.020737
  0
LINE
  8
LC-004-160-----0
 62
     2
  6
CONTINUOUS
 10
135.486954
 20
226.020737
 11
135.958115
 21
224.135971
  0
LINE
  8
LC-004-160-----0
 62
     2
  6
CONTINUOUS
 10
135.958115
 20
224.135971
 11
136.452682
 21
222.185638
  0
LINE
  8
LC-004-160-----0
 62
     2
  6
CONTINUOUS
 10
136.452682
 20
222.185638
 11
136.952759
 21
220.177048
  0
LINE
  8
LC-004-160-----0
 62
     2
  6
CONTINUOUS
 10
136.952759
 20
220.177048
 11
137.587738
 21
217.278061
  0
LINE
  8
LC-004-160-----0
 62
     2
  6
CONTINUOUS
 10
137.587738
 20
217.278061
 11
137.846954
 21
214.541016
  0
LINE
  8
LC-004-160-----0
 62
     2
  6
CONTINUOUS
 10
137.846954
 20
214.541016
 11
137.547958
 21
211.966690
  0
LINE
  8
LC-004-160-----0
 62
     2
  6
CONTINUOUS
 10
137.547958
 20
211.966690
 11
137.242310
 21
208.758224
  0
LINE
  8
LC-004-160-----0
 62
     2
  6
CONTINUOUS
 10
137.242310
 20
208.758224
 11
137.242310
 21
208.758224
  0
LINE
  8
LC-004-160-----0
 62
     2
  6
CONTINUOUS
 10
137.242310
 20
208.758224
 11
137.349579
 21
205.541016
  0
LINE
  8
LC-004-160-----0
 62
     2
  6
CONTINUOUS
 10
132.589386
 20
244.241013
 11
132.270447
 21
243.362656
  0
LINE
  8
LC-004-160-----0
 62
     2
  6
CONTINUOUS
 10
132.270447
 20
243.362656
 11
131.518280
 21
241.136520
  0
LINE
  8
LC-004-160-----0
 62
     2
  6
CONTINUOUS
 10
131.518280
 20
241.136520
 11
130.639908
 21
238.176025
  0
LINE
  8
LC-004-160-----0
 62
     2
  6
CONTINUOUS
 10
130.639908
 20
238.176025
 11
129.942337
 21
235.094620
  0
LINE
  8
LC-004-160-----0
 62
     2
  6
CONTINUOUS
 10
129.942337
 20
235.094620
 11
129.666321
 21
232.491531
  0
LINE
  8
LC-004-160-----0
 62
     2
  6
CONTINUOUS
 10
129.666321
 20
232.491531
 11
129.737167
 21
230.201935
  0
LINE
  8
LC-004-160-----0
 62
     2
  6
CONTINUOUS
 10
129.737167
 20
230.201935
 11
130.056870
 21
228.090210
  0
LINE
  8
LC-004-160-----0
 62
     2
  6
CONTINUOUS
 10
130.056870
 20
228.090210
 11
130.527451
 21
226.020737
  0
LINE
  8
LC-004-160-----0
 62
     2
  6
CONTINUOUS
 10
130.527451
 20
226.020737
 11
130.998627
 21
224.135971
  0
LINE
  8
LC-004-160-----0
 62
     2
  6
CONTINUOUS
 10
130.998627
 20
224.135971
 11
131.493179
 21
222.185638
  0
LINE
  8
LC-004-160-----0
 62
     2
  6
CONTINUOUS
 10
131.493179
 20
222.185638
 11
131.993256
 21
220.177048
  0
LINE
  8
LC-004-160-----0
 62
     2
  6
CONTINUOUS
 10
131.993256
 20
220.177048
 11
132.628235
 21
217.278061
  0
LINE
  8
LC-004-160-----0
 62
     2
  6
CONTINUOUS
 10
132.628235
 20
217.278061
 11
132.887466
 21
214.541016
  0
LINE
  8
LC-004-160-----0
 62
     2
  6
CONTINUOUS
 10
132.887466
 20
214.541016
 11
132.588470
 21
211.966690
  0
LINE
  8
LC-004-160-----0
 62
     2
  6
CONTINUOUS
 10
132.588470
 20
211.966690
 11
132.282806
 21
208.758224
  0
LINE
  8
LC-004-160-----0
 62
     2
  6
CONTINUOUS
 10
132.282806
 20
208.758224
 11
132.282806
 21
208.758224
  0
LINE
  8
LC-004-160-----0
 62
     2
  6
CONTINUOUS
 10
132.282806
 20
208.758224
 11
132.390076
 21
205.541016
  0
LINE
  8
LC-003-002-----0
 62
     1
  6
CONTINUOUS
 10
-53.348427
 20
243.741013
 11
-52.848427
 21
244.241013
  0
LINE
  8
LC-003-002-----0
 62
     1
  6
CONTINUOUS
 10
323.560883
 20
244.241013
 11
324.060883
 21
243.741013
  0
LINE
  8
LC-003-002-----0
 62
     1
  6
CONTINUOUS
 10
323.560883
 20
244.241013
 11
323.560883
 21
220.177048
  0
LINE
  8
LC-003-002-----0
 62
     1
  6
CONTINUOUS
 10
-52.848427
 20
244.241013
 11
-52.848427
 21
220.177048
  0
LINE
  8
LC-003-002-----0
 62
     1
  6
CONTINUOUS
 10
-53.348427
 20
205.541016
 11
132.390076
 21
205.541016
  0
LINE
  8
LC-003-002-----0
 62
     1
  6
CONTINUOUS
 10
-53.348427
 20
205.541016
 11
-53.348427
 21
220.177048
  0
LINE
  8
LC-003-002-----0
 62
     1
  6
CONTINUOUS
 10
-95.908501
 20
205.541016
 11
-111.908501
 21
205.541016
  0
LINE
  8
LC-003-002-----0
 62
     1
  6
CONTINUOUS
 10
-95.908501
 20
214.541016
 11
-95.908501
 21
205.541016
  0
LINE
  8
LC-003-002-----0
 62
     1
  6
CONTINUOUS
 10
-111.908501
 20
214.541016
 11
-111.908501
 21
205.541016
  0
LINE
  8
LC-003-002-----0
 62
     1
  6
CONTINUOUS
 10
-99.162468
 20
220.177048
 11
-95.908501
 21
214.541016
  0
LINE
  8
LC-001-150-----0
 62
     2
  6
DASHDOT
 10
-90.118103
 20
231.741013
 11
-118.097221
 21
231.741013
  0
LINE
  8
LC-001-150-----0
 62
     2
  6
DASHDOT
 10
-103.908501
 20
245.465683
 11
-103.908501
 21
203.761444
  0
CIRCLE
  8
LC-003-002-----0
 62
     1
  6
CONTINUOUS
 10
-103.908501
 20
231.741013
 40
12.500000
  0
CIRCLE
  8
LC-003-002-----0
 62
     1
  6
CONTINUOUS
 10
-103.908501
 20
231.741013
 40
12.500000
  0
CIRCLE
  8
LC-003-002-----0
 62
     1
  6
CONTINUOUS
 10
-103.908501
 20
231.741013
 40
12.000000
  0
LINE
  8
LC-003-002-----0
 62
     1
  6
CONTINUOUS
 10
-108.654533
 20
220.177048
 11
-111.908501
 21
214.541016
  0
LINE
  8
LC-003-002-----0
 62
     1
  6
CONTINUOUS
 10
-53.348427
 20
214.541016
 11
132.887466
 21
214.541016
  0
LINE
  8
LC-003-002-----0
 62
     1
  6
CONTINUOUS
 10
324.060883
 20
243.741013
 11
324.060883
 21
220.177048
  0
LINE
  8
LC-003-002-----0
 62
     1
  6
CONTINUOUS
 10
-53.348427
 20
220.177048
 11
131.993256
 21
220.177048
  0
LINE
  8
LC-001-150-----0
 62
     2
  6
DASHDOT
 10
-54.771038
 20
231.741013
 11
325.483490
 21
231.741013
  0
LINE
  8
LC-003-002-----0
 62
     1
  6
CONTINUOUS
 10
-52.848427
 20
244.241013
 11
132.589386
 21
244.241013
  0
LINE
  8
LC-001-150-----0
 62
     2
  6
DASHDOT
 10
-43.348427
 20
204.250076
 11
-43.348427
 21
245.465683
  0
LINE
  8
LC-001-150-----0
 62
     2
  6
DASHDOT
 10
106.651573
 20
204.250076
 11
106.651573
 21
245.465683
  0
LINE
  8
LC-001-150-----0
 62
     2
  6
DASHDOT
 10
314.060883
 20
204.250076
 11
314.060883
 21
245.465683
  0
LINE
  8
LC-001-150-----0
 62
     2
  6
DASHDOT
 10
164.060883
 20
204.250076
 11
164.060883
 21
245.465683
  0
LINE
  8
LC-003-002-----0
 62
     1
  6
CONTINUOUS
 10
137.846954
 20
214.541016
 11
324.060883
 21
214.541016
  0
LINE
  8
LC-003-002-----0
 62
     1
  6
CONTINUOUS
 10
137.352142
 20
205.541016
 11
324.060883
 21
205.541016
  0
LINE
  8
LC-003-002-----0
 62
     1
  6
CONTINUOUS
 10
136.931412
 20
220.177048
 11
324.060883
 21
220.177048
  0
LINE
  8
LC-003-002-----0
 62
     1
  6
CONTINUOUS
 10
137.548889
 20
244.241013
 11
323.560883
 21
244.241013
  0
LINE
  8
LC-003-150-MLN-0
 62
     2
  6
DASHED
 10
103.651436
 20
232.177048
 11
109.651436
 21
232.177048
  0
LINE
  8
LC-003-150-MLN-0
 62
     2
  6
DASHED
 10
109.001434
 20
226.977051
 11
109.001434
 21
235.277054
  0
LINE
  8
LC-003-150-MLN-0
 62
     2
  6
DASHED
 10
101.651436
 20
209.977051
 11
101.651436
 21
214.977051
  0
ARC
  8
LC-003-150-MLN-0
 62
     2
  6
DASHED
 10
102.651436
 20
209.977051
 40
1.000000
 50
180.000009
 51
269.999997
  0
LINE
  8
LC-003-150-MLN-0
 62
     2
  6
DASHED
 10
-46.348560
 20
232.177048
 11
-40.348560
 21
232.177048
  0
LINE
  8
LC-003-150-MLN-0
 62
     2
  6
DASHED
 10
-40.998562
 20
226.977051
 11
-40.998562
 21
235.277054
  0
LINE
  8
LC-003-150-MLN-0
 62
     2
  6
DASHED
 10
110.651436
 20
208.977051
 11
102.651436
 21
208.977051
  0
LINE
  8
LC-003-150-MLN-0
 62
     2
  6
DASHED
 10
-48.348560
 20
209.977051
 11
-48.348560
 21
214.977051
  0
ARC
  8
LC-003-150-MLN-0
 62
     2
  6
DASHED
 10
-47.348560
 20
209.977051
 40
1.000000
 50
180.000009
 51
269.999997
  0
LINE
  8
LC-003-150-MLN-0
 62
     2
  6
DASHED
 10
-39.348560
 20
208.977051
 11
-47.348560
 21
208.977051
  0
LINE
  8
LC-003-150-MLN-0
 62
     2
  6
DASHED
 10
-38.348560
 20
209.977051
 11
-38.348560
 21
214.977051
  0
ARC
  8
LC-003-150-MLN-0
 62
     2
  6
DASHED
 10
-39.348560
 20
209.977051
 40
1.000000
 50
269.999997
 51
0.000000
  0
LINE
  8
LC-003-150-MLN-0
 62
     2
  6
DASHED
 10
-40.348560
 20
226.601776
 11
-40.998562
 21
226.977051
  0
LINE
  8
LC-003-150-MLN-0
 62
     2
  6
DASHED
 10
-45.698563
 20
226.977051
 11
-40.998562
 21
226.977051
  0
LINE
  8
LC-003-150-MLN-0
 62
     2
  6
DASHED
 10
-46.348560
 20
226.601776
 11
-45.698563
 21
226.977051
  0
LINE
  8
LC-003-150-MLN-0
 62
     2
  6
DASHED
 10
-46.348560
 20
214.977051
 11
-46.348560
 21
226.601776
  0
LINE
  8
LC-003-150-MLN-0
 62
     2
  6
DASHED
 10
-40.348560
 20
214.977051
 11
-40.348560
 21
226.601776
  0
LINE
  8
LC-003-150-MLN-0
 62
     2
  6
DASHED
 10
-46.648563
 20
214.977051
 11
-46.648563
 21
220.177048
  0
LINE
  8
LC-003-150-MLN-0
 62
     2
  6
DASHED
 10
-46.348560
 20
217.977051
 11
-40.348560
 21
217.977051
  0
LINE
  8
LC-003-150-MLN-0
 62
     2
  6
DASHED
 10
-46.348560
 20
226.601776
 11
-40.348560
 21
226.601776
  0
LINE
  8
LC-003-150-MLN-0
 62
     2
  6
DASHED
 10
-40.048561
 20
214.977051
 11
-40.048561
 21
220.177048
  0
LINE
  8
LC-003-150-MLN-0
 62
     2
  6
DASHED
 10
-40.998562
 20
235.277054
 11
-43.348560
 21
236.633820
  0
LINE
  8
LC-003-150-MLN-0
 62
     2
  6
DASHED
 10
-45.698563
 20
235.277054
 11
-43.348560
 21
236.633820
  0
LINE
  8
LC-003-150-MLN-0
 62
     2
  6
DASHED
 10
-45.698563
 20
226.977051
 11
-45.698563
 21
235.277054
  0
LINE
  8
LC-003-150-MLN-0
 62
     2
  6
DASHED
 10
-46.348560
 20
232.177048
 11
-46.348560
 21
226.601776
  0
LINE
  8
LC-003-150-MLN-0
 62
     2
  6
DASHED
 10
-45.698563
 20
235.277054
 11
-40.998562
 21
235.277054
  0
LINE
  8
LC-003-150-MLN-0
 62
     2
  6
DASHED
 10
-108.908638
 20
214.977051
 11
-98.908638
 21
214.977051
  0
LINE
  8
LC-003-150-MLN-0
 62
     2
  6
DASHED
 10
-45.698563
 20
226.977051
 11
-45.698563
 21
217.977051
  0
LINE
  8
LC-003-150-MLN-0
 62
     2
  6
DASHED
 10
-40.348560
 20
232.177048
 11
-40.348560
 21
226.601776
  0
LINE
  8
LC-003-150-MLN-0
 62
     2
  6
DASHED
 10
-40.998562
 20
226.977051
 11
-40.998562
 21
217.977051
  0
LINE
  8
LC-003-150-MLN-0
 62
     2
  6
DASHED
 10
-48.848560
 20
205.718918
 11
-48.848560
 21
214.977051
  0
LINE
  8
LC-003-150-MLN-0
 62
     2
  6
DASHED
 10
-37.848560
 20
205.718918
 11
-37.848560
 21
214.977051
  0
LINE
  8
LC-003-150-MLN-0
 62
     2
  6
DASHED
 10
111.651436
 20
209.977051
 11
111.651436
 21
214.977051
  0
ARC
  8
LC-003-150-MLN-0
 62
     2
  6
DASHED
 10
110.651436
 20
209.977051
 40
1.000000
 50
269.999997
 51
0.000000
  0
LINE
  8
LC-003-150-MLN-0
 62
     2
  6
DASHED
 10
109.651436
 20
226.601776
 11
109.001434
 21
226.977051
  0
LINE
  8
LC-003-150-MLN-0
 62
     2
  6
DASHED
 10
104.301437
 20
226.977051
 11
109.001434
 21
226.977051
  0
LINE
  8
LC-003-150-MLN-0
 62
     2
  6
DASHED
 10
103.651436
 20
226.601776
 11
104.301437
 21
226.977051
  0
LINE
  8
LC-003-150-MLN-0
 62
     2
  6
DASHED
 10
103.651436
 20
214.977051
 11
103.651436
 21
226.601776
  0
LINE
  8
LC-003-150-MLN-0
 62
     2
  6
DASHED
 10
109.651436
 20
214.977051
 11
109.651436
 21
226.601776
  0
LINE
  8
LC-003-150-MLN-0
 62
     2
  6
DASHED
 10
103.351440
 20
214.977051
 11
103.351440
 21
220.177048
  0
LINE
  8
LC-003-150-MLN-0
 62
     2
  6
DASHED
 10
103.651436
 20
217.977051
 11
109.651436
 21
217.977051
  0
LINE
  8
LC-003-150-MLN-0
 62
     2
  6
DASHED
 10
103.651436
 20
226.601776
 11
109.651436
 21
226.601776
  0
LINE
  8
LC-003-150-MLN-0
 62
     2
  6
DASHED
 10
109.951439
 20
214.977051
 11
109.951439
 21
220.177048
  0
LINE
  8
LC-003-150-MLN-0
 62
     2
  6
DASHED
 10
109.001434
 20
235.277054
 11
106.651436
 21
236.633820
  0
LINE
  8
LC-003-150-MLN-0
 62
     2
  6
DASHED
 10
104.301437
 20
235.277054
 11
106.651436
 21
236.633820
  0
LINE
  8
LC-003-150-MLN-0
 62
     2
  6
DASHED
 10
104.301437
 20
226.977051
 11
104.301437
 21
235.277054
  0
LINE
  8
LC-003-150-MLN-0
 62
     2
  6
DASHED
 10
103.651436
 20
232.177048
 11
103.651436
 21
226.601776
  0
LINE
  8
LC-003-150-MLN-0
 62
     2
  6
DASHED
 10
104.301437
 20
235.277054
 11
109.001434
 21
235.277054
  0
LINE
  8
LC-003-150-MLN-0
 62
     2
  6
DASHED
 10
-48.348560
 20
214.977051
 11
-38.348560
 21
214.977051
  0
LINE
  8
LC-003-150-MLN-0
 62
     2
  6
DASHED
 10
104.301437
 20
226.977051
 11
104.301437
 21
217.977051
  0
LINE
  8
LC-003-150-MLN-0
 62
     2
  6
DASHED
 10
109.651436
 20
232.177048
 11
109.651436
 21
226.601776
  0
LINE
  8
LC-003-150-MLN-0
 62
     2
  6
DASHED
 10
109.001434
 20
226.977051
 11
109.001434
 21
217.977051
  0
LINE
  8
LC-003-150-MLN-0
 62
     2
  6
DASHED
 10
101.151436
 20
205.718918
 11
101.151436
 21
214.977051
  0
LINE
  8
LC-003-150-MLN-0
 62
     2
  6
DASHED
 10
112.151436
 20
205.718918
 11
112.151436
 21
214.977051
  0
LINE
  8
LC-003-150-MLN-0
 62
     2
  6
DASHED
 10
161.060745
 20
232.177048
 11
167.060745
 21
232.177048
  0
LINE
  8
LC-003-150-MLN-0
 62
     2
  6
DASHED
 10
166.410751
 20
226.977051
 11
166.410751
 21
235.277054
  0
LINE
  8
LC-003-150-MLN-0
 62
     2
  6
DASHED
 10
159.060745
 20
209.977051
 11
159.060745
 21
214.977051
  0
ARC
  8
LC-003-150-MLN-0
 62
     2
  6
DASHED
 10
160.060745
 20
209.977051
 40
1.000000
 50
180.000009
 51
269.999997
  0
LINE
  8
LC-003-150-MLN-0
 62
     2
  6
DASHED
 10
168.060745
 20
208.977051
 11
160.060745
 21
208.977051
  0
LINE
  8
LC-003-150-MLN-0
 62
     2
  6
DASHED
 10
169.060745
 20
209.977051
 11
169.060745
 21
214.977051
  0
ARC
  8
LC-003-150-MLN-0
 62
     2
  6
DASHED
 10
168.060745
 20
209.977051
 40
1.000000
 50
269.999997
 51
0.000000
  0
LINE
  8
LC-003-150-MLN-0
 62
     2
  6
DASHED
 10
167.060745
 20
226.601776
 11
166.410751
 21
226.977051
  0
LINE
  8
LC-003-150-MLN-0
 62
     2
  6
DASHED
 10
161.710754
 20
226.977051
 11
166.410751
 21
226.977051
  0
LINE
  8
LC-003-150-MLN-0
 62
     2
  6
DASHED
 10
161.060745
 20
226.601776
 11
161.710754
 21
226.977051
  0
LINE
  8
LC-003-150-MLN-0
 62
     2
  6
DASHED
 10
161.060745
 20
214.977051
 11
161.060745
 21
226.601776
  0
LINE
  8
LC-003-150-MLN-0
 62
     2
  6
DASHED
 10
167.060745
 20
214.977051
 11
167.060745
 21
226.601776
  0
LINE
  8
LC-003-150-MLN-0
 62
     2
  6
DASHED
 10
160.760757
 20
214.977051
 11
160.760757
 21
220.177048
  0
LINE
  8
LC-003-150-MLN-0
 62
     2
  6
DASHED
 10
161.060745
 20
217.977051
 11
167.060745
 21
217.977051
  0
LINE
  8
LC-003-150-MLN-0
 62
     2
  6
DASHED
 10
161.060745
 20
226.601776
 11
167.060745
 21
226.601776
  0
LINE
  8
LC-003-150-MLN-0
 62
     2
  6
DASHED
 10
167.360748
 20
214.977051
 11
167.360748
 21
220.177048
  0
LINE
  8
LC-003-150-MLN-0
 62
     2
  6
DASHED
 10
166.410751
 20
235.277054
 11
164.060745
 21
236.633820
  0
LINE
  8
LC-003-150-MLN-0
 62
     2
  6
DASHED
 10
161.710754
 20
235.277054
 11
164.060745
 21
236.633820
  0
LINE
  8
LC-003-150-MLN-0
 62
     2
  6
DASHED
 10
161.710754
 20
226.977051
 11
161.710754
 21
235.277054
  0
LINE
  8
LC-003-150-MLN-0
 62
     2
  6
DASHED
 10
161.060745
 20
232.177048
 11
161.060745
 21
226.601776
  0
LINE
  8
LC-003-150-MLN-0
 62
     2
  6
DASHED
 10
161.710754
 20
235.277054
 11
166.410751
 21
235.277054
  0
LINE
  8
LC-003-002-----0
 62
     1
  6
CONTINUOUS
 10
-53.348427
 20
220.177048
 11
-53.348427
 21
243.741013
  0
LINE
  8
LC-003-150-MLN-0
 62
     2
  6
DASHED
 10
161.710754
 20
226.977051
 11
161.710754
 21
217.977051
  0
LINE
  8
LC-003-150-MLN-0
 62
     2
  6
DASHED
 10
167.060745
 20
232.177048
 11
167.060745
 21
226.601776
  0
LINE
  8
LC-003-150-MLN-0
 62
     2
  6
DASHED
 10
166.410751
 20
226.977051
 11
166.410751
 21
217.977051
  0
LINE
  8
LC-003-150-MLN-0
 62
     2
  6
DASHED
 10
158.560745
 20
205.718918
 11
158.560745
 21
214.977051
  0
LINE
  8
LC-003-150-MLN-0
 62
     2
  6
DASHED
 10
169.560745
 20
205.718918
 11
169.560745
 21
214.977051
  0
LINE
  8
LC-003-150-MLN-0
 62
     2
  6
DASHED
 10
311.060760
 20
232.177048
 11
317.060760
 21
232.177048
  0
LINE
  8
LC-003-150-MLN-0
 62
     2
  6
DASHED
 10
316.410736
 20
226.977051
 11
316.410736
 21
235.277054
  0
LINE
  8
LC-003-150-MLN-0
 62
     2
  6
DASHED
 10
309.060760
 20
209.977051
 11
309.060760
 21
214.977051
  0
ARC
  8
LC-003-150-MLN-0
 62
     2
  6
DASHED
 10
310.060760
 20
209.977051
 40
1.000000
 50
180.000009
 51
269.999997
  0
LINE
  8
LC-003-150-MLN-0
 62
     2
  6
DASHED
 10
318.060760
 20
208.977051
 11
310.060760
 21
208.977051
  0
LINE
  8
LC-003-150-MLN-0
 62
     2
  6
DASHED
 10
319.060760
 20
209.977051
 11
319.060760
 21
214.977051
  0
ARC
  8
LC-003-150-MLN-0
 62
     2
  6
DASHED
 10
318.060760
 20
209.977051
 40
1.000000
 50
269.999997
 51
0.000000
  0
LINE
  8
LC-003-150-MLN-0
 62
     2
  6
DASHED
 10
317.060760
 20
226.601776
 11
316.410736
 21
226.977051
  0
LINE
  8
LC-003-150-MLN-0
 62
     2
  6
DASHED
 10
311.710754
 20
226.977051
 11
316.410736
 21
226.977051
  0
LINE
  8
LC-003-150-MLN-0
 62
     2
  6
DASHED
 10
311.060760
 20
226.601776
 11
311.710754
 21
226.977051
  0
LINE
  8
LC-003-150-MLN-0
 62
     2
  6
DASHED
 10
311.060760
 20
214.977051
 11
311.060760
 21
226.601776
  0
LINE
  8
LC-003-150-MLN-0
 62
     2
  6
DASHED
 10
317.060760
 20
214.977051
 11
317.060760
 21
226.601776
  0
LINE
  8
LC-003-150-MLN-0
 62
     2
  6
DASHED
 10
310.760742
 20
214.977051
 11
310.760742
 21
220.177048
  0
LINE
  8
LC-003-150-MLN-0
 62
     2
  6
DASHED
 10
311.060760
 20
217.977051
 11
317.060760
 21
217.977051
  0
LINE
  8
LC-003-150-MLN-0
 62
     2
  6
DASHED
 10
311.060760
 20
226.601776
 11
317.060760
 21
226.601776
  0
LINE
  8
LC-003-150-MLN-0
 62
     2
  6
DASHED
 10
317.360748
 20
214.977051
 11
317.360748
 21
220.177048
  0
LINE
  8
LC-003-150-MLN-0
 62
     2
  6
DASHED
 10
316.410736
 20
235.277054
 11
314.060760
 21
236.633820
  0
LINE
  8
LC-003-150-MLN-0
 62
     2
  6
DASHED
 10
311.710754
 20
235.277054
 11
314.060760
 21
236.633820
  0
LINE
  8
LC-003-150-MLN-0
 62
     2
  6
DASHED
 10
311.710754
 20
226.977051
 11
311.710754
 21
235.277054
  0
LINE
  8
LC-003-150-MLN-0
 62
     2
  6
DASHED
 10
101.651436
 20
214.977051
 11
111.651436
 21
214.977051
  0
LINE
  8
LC-003-150-MLN-0
 62
     2
  6
DASHED
 10
311.060760
 20
232.177048
 11
311.060760
 21
226.601776
  0
LINE
  8
LC-003-150-MLN-0
 62
     2
  6
DASHED
 10
311.710754
 20
235.277054
 11
316.410736
 21
235.277054
  0
LINE
  8
LC-003-150-MLN-0
 62
     2
  6
DASHED
 10
311.710754
 20
226.977051
 11
311.710754
 21
217.977051
  0
LINE
  8
LC-003-150-MLN-0
 62
     2
  6
DASHED
 10
317.060760
 20
232.177048
 11
317.060760
 21
226.601776
  0
LINE
  8
LC-003-150-MLN-0
 62
     2
  6
DASHED
 10
316.410736
 20
226.977051
 11
316.410736
 21
217.977051
  0
LINE
  8
LC-003-150-MLN-0
 62
     2
  6
DASHED
 10
308.560760
 20
205.718918
 11
308.560760
 21
214.977051
  0
LINE
  8
LC-003-150-MLN-0
 62
     2
  6
DASHED
 10
319.560760
 20
205.718918
 11
319.560760
 21
214.977051
  0
LINE
  8
LC-003-150-MLN-0
 62
     2
  6
DASHED
 10
-106.908638
 20
232.177048
 11
-100.908638
 21
232.177048
  0
LINE
  8
LC-003-150-MLN-0
 62
     2
  6
DASHED
 10
-101.558640
 20
226.977051
 11
-101.558640
 21
235.277054
  0
LINE
  8
LC-003-002-----0
 62
     1
  6
CONTINUOUS
 10
324.060883
 20
220.177048
 11
324.060883
 21
205.541016
  0
LINE
  8
LC-003-150-MLN-0
 62
     2
  6
DASHED
 10
-108.908638
 20
209.977051
 11
-108.908638
 21
214.977051
  0
ARC
  8
LC-003-150-MLN-0
 62
     2
  6
DASHED
 10
-107.908638
 20
209.977051
 40
1.000000
 50
180.000009
 51
269.999997
  0
LINE
  8
LC-003-150-MLN-0
 62
     2
  6
DASHED
 10
-99.908638
 20
208.977051
 11
-107.908638
 21
208.977051
  0
LINE
  8
LC-003-150-MLN-0
 62
     2
  6
DASHED
 10
-98.908638
 20
209.977051
 11
-98.908638
 21
214.977051
  0
ARC
  8
LC-003-150-MLN-0
 62
     2
  6
DASHED
 10
-99.908638
 20
209.977051
 40
1.000000
 50
269.999997
 51
0.000000
  0
LINE
  8
LC-003-150-MLN-0
 62
     2
  6
DASHED
 10
-100.908638
 20
226.601776
 11
-101.558640
 21
226.977051
  0
LINE
  8
LC-003-150-MLN-0
 62
     2
  6
DASHED
 10
-106.258636
 20
226.977051
 11
-101.558640
 21
226.977051
  0
LINE
  8
LC-003-150-MLN-0
 62
     2
  6
DASHED
 10
-106.908638
 20
226.601776
 11
-106.258636
 21
226.977051
  0
LINE
  8
LC-003-150-MLN-0
 62
     2
  6
DASHED
 10
-106.908638
 20
214.977051
 11
-106.908638
 21
226.601776
  0
LINE
  8
LC-003-150-MLN-0
 62
     2
  6
DASHED
 10
-100.908638
 20
214.977051
 11
-100.908638
 21
226.601776
  0
LINE
  8
LC-003-150-MLN-0
 62
     2
  6
DASHED
 10
-107.208641
 20
214.977051
 11
-107.208641
 21
219.684525
  0
LINE
  8
LC-003-150-MLN-0
 62
     2
  6
DASHED
 10
-106.908638
 20
217.977051
 11
-100.908638
 21
217.977051
  0
LINE
  8
LC-003-150-MLN-0
 62
     2
  6
DASHED
 10
-106.908638
 20
226.601776
 11
-100.908638
 21
226.601776
  0
LINE
  8
LC-003-150-MLN-0
 62
     2
  6
DASHED
 10
-100.608635
 20
214.977051
 11
-100.608635
 21
219.684448
  0
LINE
  8
LC-003-150-MLN-0
 62
     2
  6
DASHED
 10
-101.558640
 20
235.277054
 11
-103.908638
 21
236.633820
  0
LINE
  8
LC-003-150-MLN-0
 62
     2
  6
DASHED
 10
-106.258636
 20
235.277054
 11
-103.908638
 21
236.633820
  0
LINE
  8
LC-003-150-MLN-0
 62
     2
  6
DASHED
 10
-106.258636
 20
226.977051
 11
-106.258636
 21
235.277054
  0
LINE
  8
LC-003-150-MLN-0
 62
     2
  6
DASHED
 10
159.060745
 20
214.977051
 11
169.060745
 21
214.977051
  0
LINE
  8
LC-003-150-MLN-0
 62
     2
  6
DASHED
 10
-106.908638
 20
232.177048
 11
-106.908638
 21
226.601776
  0
LINE
  8
LC-003-150-MLN-0
 62
     2
  6
DASHED
 10
-106.258636
 20
235.277054
 11
-101.558640
 21
235.277054
  0
LINE
  8
LC-003-150-MLN-0
 62
     2
  6
DASHED
 10
-106.258636
 20
226.977051
 11
-106.258636
 21
217.977051
  0
LINE
  8
LC-003-150-MLN-0
 62
     2
  6
DASHED
 10
-100.908638
 20
232.177048
 11
-100.908638
 21
226.601776
  0
LINE
  8
LC-003-150-MLN-0
 62
     2
  6
DASHED
 10
-101.558640
 20
226.977051
 11
-101.558640
 21
217.977051
  0
LINE
  8
LC-003-150-MLN-0
 62
     2
  6
DASHED
 10
-109.408638
 20
205.718918
 11
-109.408638
 21
214.977051
  0
LINE
  8
LC-003-150-MLN-0
 62
     2
  6
DASHED
 10
-98.408638
 20
205.718918
 11
-98.408638
 21
214.977051
  0
LINE
  8
LC-003-150-MLN-0
 62
     2
  6
DASHED
 10
309.060760
 20
214.977051
 11
319.060760
 21
214.977051
  0
ENDSEC
  0
EOF
