  0
SECTION
  2
HEADER
  9
$LIMMIN
 10
-122.803864
 20
-0.029863
  9
$LIMMAX
 10
325.483490
 20
56.038723
  9
$EXTMIN
 10
-122.803864
 20
-0.029863
  9
$EXTMAX
 10
325.483490
 20
56.038723
  0
ENDSEC
  0
SECTION
  2
TABLES
  0
TABLE
  2
LTYPE
 70
     3
  0
LTYPE
  2
CONTINUOUS
 70
    64
  3
Ausgezogene Linie
 72
    65
 73
     0
 40
0.0
  0
LTYPE
  2
DASHED
 70
    64
  3
__ __ __ __ __ __ __ __ __ __ __ __ __ __ __
 72
    65
 73
     2
 40
0.75
 49
0.5
 49
-0.25
  0
LTYPE
  2
DASHDOT
 70
    64
  3
__ . __ . __ . __ . __ . __ . __ . __ . __ . __
 72
    65
 73
     4
 40
1.0
 49
0.5
 49
-0.25
 49
0.0
 49
-0.25
  0
ENDTAB
  0
TABLE
  2
LAYER
 70
     5
  0
LAYER
  2
LC-INFO-1-1-MM-A0-0
 70
    64
 62
     7
  6
CONTINUOUS
  0
LAYER
  2
LC-003-002-----0
 70
    64
 62
     7
  6
CONTINUOUS
  0
LAYER
  2
LC-001-150-----0
 70
    64
 62
     7
  6
CONTINUOUS
  0
LAYER
  2
LC-003-150-MLN-0
 70
    64
 62
     7
  6
CONTINUOUS
  0
LAYER
  2
LC-004-160-----0
 70
    64
 62
     7
  6
CONTINUOUS
  0
ENDTAB
  0
TABLE
  2
STYLE
 70
     1
  0
STYLE
  2
TXT8
 70
    64
 40
0.0
 41
1.0
 50
0.0
 71
     0
 42
3.500000
  3
TXT8
  4

  0
ENDTAB
  0
ENDSEC
  0
SECTION
  2
BLOCKS
  0
ENDSEC
  0
SECTION
  2
ENTITIES
  0
LINE
  8
LC-004-160-----0
 62
     2
  6
CONTINUOUS
 10
138.495071
 20
51.861073
 11
138.198288
 21
51.198158
  0
LINE
  8
LC-004-160-----0
 62
     2
  6
CONTINUOUS
 10
138.198288
 20
51.198158
 11
137.447357
 21
49.447304
  0
LINE
  8
LC-004-160-----0
 62
     2
  6
CONTINUOUS
 10
137.447357
 20
49.447304
 11
136.451340
 21
46.965321
  0
LINE
  8
LC-004-160-----0
 62
     2
  6
CONTINUOUS
 10
136.451340
 20
46.965321
 11
135.419312
 21
44.109024
  0
LINE
  8
LC-004-160-----0
 62
     2
  6
CONTINUOUS
 10
135.419312
 20
44.109024
 11
134.560379
 21
41.235229
  0
LINE
  8
LC-004-160-----0
 62
     2
  6
CONTINUOUS
 10
134.560379
 20
41.235229
 11
134.040329
 21
38.631504
  0
LINE
  8
LC-004-160-----0
 62
     2
  6
CONTINUOUS
 10
134.040329
 20
38.631504
 11
133.847290
 21
36.282253
  0
LINE
  8
LC-004-160-----0
 62
     2
  6
CONTINUOUS
 10
133.847290
 20
36.282253
 11
133.927383
 21
34.103794
  0
LINE
  8
LC-004-160-----0
 62
     2
  6
CONTINUOUS
 10
133.927383
 20
34.103794
 11
134.226746
 21
32.012447
  0
LINE
  8
LC-004-160-----0
 62
     2
  6
CONTINUOUS
 10
134.226746
 20
32.012447
 11
134.691528
 21
29.924536
  0
LINE
  8
LC-004-160-----0
 62
     2
  6
CONTINUOUS
 10
134.691528
 20
29.924536
 11
135.268860
 21
27.750013
  0
LINE
  8
LC-004-160-----0
 62
     2
  6
CONTINUOUS
 10
135.268860
 20
27.750013
 11
135.867996
 21
25.523352
  0
LINE
  8
LC-004-160-----0
 62
     2
  6
CONTINUOUS
 10
135.867996
 20
25.523352
 11
136.396561
 21
23.274513
  0
LINE
  8
LC-004-160-----0
 62
     2
  6
CONTINUOUS
 10
136.396561
 20
23.274513
 11
136.849548
 21
20.749586
  0
LINE
  8
LC-004-160-----0
 62
     2
  6
CONTINUOUS
 10
136.849548
 20
20.749586
 11
137.314667
 21
18.216976
  0
LINE
  8
LC-004-160-----0
 62
     2
  6
CONTINUOUS
 10
137.314667
 20
18.216976
 11
137.314667
 21
18.216976
  0
LINE
  8
LC-004-160-----0
 62
     2
  6
CONTINUOUS
 10
137.314667
 20
18.216976
 11
137.970444
 21
15.461071
  0
LINE
  8
LC-004-160-----0
 62
     2
  6
CONTINUOUS
 10
137.970444
 20
15.461071
 11
138.431366
 21
13.222915
  0
LINE
  8
LC-004-160-----0
 62
     2
  6
CONTINUOUS
 10
138.431366
 20
13.222915
 11
138.701660
 21
10.886688
  0
LINE
  8
LC-004-160-----0
 62
     2
  6
CONTINUOUS
 10
138.701660
 20
10.886688
 11
138.757385
 21
8.096883
  0
LINE
  8
LC-004-160-----0
 62
     2
  6
CONTINUOUS
 10
138.757385
 20
8.096883
 11
138.625061
 21
5.036176
  0
LINE
  8
LC-004-160-----0
 62
     2
  6
CONTINUOUS
 10
138.625061
 20
5.036176
 11
138.436996
 21
2.389088
  0
LINE
  8
LC-004-160-----0
 62
     2
  6
CONTINUOUS
 10
138.436996
 20
2.389088
 11
138.341370
 21
1.261071
  0
LINE
  8
LC-004-160-----0
 62
     2
  6
CONTINUOUS
 10
138.341370
 20
1.261071
 11
138.341370
 21
1.261071
  0
LINE
  8
LC-004-160-----0
 62
     2
  6
CONTINUOUS
 10
132.543777
 20
51.861073
 11
132.246994
 21
51.198158
  0
LINE
  8
LC-004-160-----0
 62
     2
  6
CONTINUOUS
 10
132.246994
 20
51.198158
 11
131.496063
 21
49.447304
  0
LINE
  8
LC-004-160-----0
 62
     2
  6
CONTINUOUS
 10
131.496063
 20
49.447304
 11
130.500031
 21
46.965321
  0
LINE
  8
LC-004-160-----0
 62
     2
  6
CONTINUOUS
 10
130.500031
 20
46.965321
 11
129.468018
 21
44.109024
  0
LINE
  8
LC-004-160-----0
 62
     2
  6
CONTINUOUS
 10
129.468018
 20
44.109024
 11
128.609085
 21
41.235229
  0
LINE
  8
LC-004-160-----0
 62
     2
  6
CONTINUOUS
 10
128.609085
 20
41.235229
 11
128.089035
 21
38.631504
  0
LINE
  8
LC-004-160-----0
 62
     2
  6
CONTINUOUS
 10
128.089035
 20
38.631504
 11
127.895988
 21
36.282253
  0
LINE
  8
LC-004-160-----0
 62
     2
  6
CONTINUOUS
 10
127.895988
 20
36.282253
 11
127.976082
 21
34.103794
  0
LINE
  8
LC-004-160-----0
 62
     2
  6
CONTINUOUS
 10
127.976082
 20
34.103794
 11
128.275452
 21
32.012447
  0
LINE
  8
LC-004-160-----0
 62
     2
  6
CONTINUOUS
 10
128.275452
 20
32.012447
 11
128.740234
 21
29.924536
  0
LINE
  8
LC-004-160-----0
 62
     2
  6
CONTINUOUS
 10
128.740234
 20
29.924536
 11
129.317566
 21
27.750013
  0
LINE
  8
LC-004-160-----0
 62
     2
  6
CONTINUOUS
 10
129.317566
 20
27.750013
 11
129.916702
 21
25.523352
  0
LINE
  8
LC-004-160-----0
 62
     2
  6
CONTINUOUS
 10
129.916702
 20
25.523352
 11
130.445267
 21
23.274513
  0
LINE
  8
LC-004-160-----0
 62
     2
  6
CONTINUOUS
 10
130.445267
 20
23.274513
 11
130.898254
 21
20.749586
  0
LINE
  8
LC-004-160-----0
 62
     2
  6
CONTINUOUS
 10
130.898254
 20
20.749586
 11
131.363373
 21
18.216976
  0
LINE
  8
LC-004-160-----0
 62
     2
  6
CONTINUOUS
 10
131.363373
 20
18.216976
 11
131.363373
 21
18.216976
  0
LINE
  8
LC-004-160-----0
 62
     2
  6
CONTINUOUS
 10
131.363373
 20
18.216976
 11
132.019150
 21
15.461071
  0
LINE
  8
LC-004-160-----0
 62
     2
  6
CONTINUOUS
 10
132.019150
 20
15.461071
 11
132.480072
 21
13.222915
  0
LINE
  8
LC-004-160-----0
 62
     2
  6
CONTINUOUS
 10
132.480072
 20
13.222915
 11
132.750366
 21
10.886688
  0
LINE
  8
LC-004-160-----0
 62
     2
  6
CONTINUOUS
 10
132.750366
 20
10.886688
 11
132.806091
 21
8.096883
  0
LINE
  8
LC-004-160-----0
 62
     2
  6
CONTINUOUS
 10
132.806091
 20
8.096883
 11
132.673767
 21
5.036176
  0
LINE
  8
LC-004-160-----0
 62
     2
  6
CONTINUOUS
 10
132.673767
 20
5.036176
 11
132.485703
 21
2.389088
  0
LINE
  8
LC-004-160-----0
 62
     2
  6
CONTINUOUS
 10
132.485703
 20
2.389088
 11
132.390076
 21
1.261071
  0
LINE
  8
LC-004-160-----0
 62
     2
  6
CONTINUOUS
 10
132.390076
 20
1.261071
 11
132.390076
 21
1.261071
  0
LINE
  8
LC-003-002-----0
 62
     1
  6
CONTINUOUS
 10
-53.348427
 20
1.261071
 11
132.390076
 21
1.261071
  0
LINE
  8
LC-003-002-----0
 62
     1
  6
CONTINUOUS
 10
-95.908501
 20
1.261071
 11
-115.908501
 21
1.261071
  0
LINE
  8
LC-003-002-----0
 62
     1
  6
CONTINUOUS
 10
-95.908501
 20
15.461071
 11
-95.908501
 21
1.261071
  0
LINE
  8
LC-003-002-----0
 62
     1
  6
CONTINUOUS
 10
-53.348427
 20
50.861073
 11
-53.348427
 21
23.274511
  0
LINE
  8
LC-003-002-----0
 62
     1
  6
CONTINUOUS
 10
324.060883
 20
50.861073
 11
324.060883
 21
23.274511
  0
LINE
  8
LC-001-150-----0
 62
     2
  6
DASHDOT
 10
-43.348427
 20
56.038723
 11
-43.348427
 21
-0.029863
  0
LINE
  8
LC-001-150-----0
 62
     2
  6
DASHDOT
 10
106.651573
 20
56.038723
 11
106.651573
 21
-0.029863
  0
LINE
  8
LC-001-150-----0
 62
     2
  6
DASHDOT
 10
314.060883
 20
56.038723
 11
314.060883
 21
-0.029863
  0
LINE
  8
LC-001-150-----0
 62
     2
  6
DASHDOT
 10
164.060883
 20
56.038723
 11
164.060883
 21
-0.029863
  0
LINE
  8
LC-003-002-----0
 62
     1
  6
CONTINUOUS
 10
-115.908501
 20
15.461071
 11
-115.908501
 21
1.261071
  0
LINE
  8
LC-001-150-----0
 62
     2
  6
DASHDOT
 10
-105.908501
 20
56.038723
 11
-105.908501
 21
-0.029863
  0
LINE
  8
LC-003-002-----0
 62
     1
  6
CONTINUOUS
 10
-99.551971
 20
23.274513
 11
-95.908501
 21
15.461072
  0
LINE
  8
LC-001-150-----0
 62
     2
  6
DASHDOT
 10
-89.513657
 20
36.861073
 11
-122.803864
 21
36.861073
  0
CIRCLE
  8
LC-003-002-----0
 62
     1
  6
CONTINUOUS
 10
-105.908501
 20
36.861073
 40
15.000000
  0
CIRCLE
  8
LC-003-002-----0
 62
     1
  6
CONTINUOUS
 10
-105.908501
 20
36.861073
 40
14.000000
  0
LINE
  8
LC-003-002-----0
 62
     1
  6
CONTINUOUS
 10
-112.265030
 20
23.274513
 11
-115.908501
 21
15.461072
  0
LINE
  8
LC-003-002-----0
 62
     1
  6
CONTINUOUS
 10
-52.348427
 20
51.861073
 11
132.543777
 21
51.861073
  0
LINE
  8
LC-001-150-----0
 62
     2
  6
DASHDOT
 10
-54.771038
 20
36.861073
 11
325.483490
 21
36.861073
  0
LINE
  8
LC-003-002-----0
 62
     1
  6
CONTINUOUS
 10
-53.348427
 20
23.274513
 11
130.445267
 21
23.274513
  0
LINE
  8
LC-003-002-----0
 62
     1
  6
CONTINUOUS
 10
-53.348427
 20
15.461071
 11
132.019150
 21
15.461071
  0
LINE
  8
LC-003-002-----0
 62
     1
  6
CONTINUOUS
 10
-52.348427
 20
51.861073
 11
-53.348427
 21
50.861073
  0
LINE
  8
LC-003-002-----0
 62
     1
  6
CONTINUOUS
 10
323.060883
 20
51.861073
 11
324.060883
 21
50.861073
  0
LINE
  8
LC-003-002-----0
 62
     1
  6
CONTINUOUS
 10
323.060883
 20
51.861073
 11
323.060883
 21
23.274511
  0
LINE
  8
LC-003-002-----0
 62
     1
  6
CONTINUOUS
 10
-52.348427
 20
51.861073
 11
-52.348427
 21
23.274511
  0
LINE
  8
LC-003-002-----0
 62
     1
  6
CONTINUOUS
 10
137.968323
 20
15.461071
 11
324.060883
 21
15.461071
  0
LINE
  8
LC-003-002-----0
 62
     1
  6
CONTINUOUS
 10
138.298477
 20
1.261071
 11
324.060883
 21
1.261071
  0
LINE
  8
LC-003-002-----0
 62
     1
  6
CONTINUOUS
 10
136.361542
 20
23.274513
 11
324.060883
 21
23.274513
  0
LINE
  8
LC-003-002-----0
 62
     1
  6
CONTINUOUS
 10
138.495071
 20
51.861073
 11
323.060883
 21
51.861073
  0
LINE
  8
LC-003-150-MLN-0
 62
     2
  6
DASHED
 10
-109.908638
 20
39.274513
 11
-101.908638
 21
39.274513
  0
LINE
  8
LC-003-150-MLN-0
 62
     2
  6
DASHED
 10
-102.721138
 20
33.274513
 11
-102.721138
 21
43.474514
  0
LINE
  8
LC-003-150-MLN-0
 62
     2
  6
DASHED
 10
-112.408638
 20
17.274513
 11
-99.408638
 21
17.274513
  0
LINE
  8
LC-003-150-MLN-0
 62
     2
  6
DASHED
 10
-112.408638
 20
10.574514
 11
-112.408638
 21
17.274513
  0
ARC
  8
LC-003-150-MLN-0
 62
     2
  6
DASHED
 10
-111.108635
 20
10.574514
 40
1.300000
 50
180.000009
 51
269.999997
  0
LINE
  8
LC-003-150-MLN-0
 62
     2
  6
DASHED
 10
-100.708641
 20
9.274514
 11
-111.108635
 21
9.274514
  0
LINE
  8
LC-003-150-MLN-0
 62
     2
  6
DASHED
 10
-99.408638
 20
10.574514
 11
-99.408638
 21
17.274513
  0
ARC
  8
LC-003-150-MLN-0
 62
     2
  6
DASHED
 10
-100.708641
 20
10.574514
 40
1.300000
 50
269.999997
 51
0.000000
  0
LINE
  8
LC-003-150-MLN-0
 62
     2
  6
DASHED
 10
-101.908638
 20
32.805416
 11
-102.721138
 21
33.274513
  0
LINE
  8
LC-003-150-MLN-0
 62
     2
  6
DASHED
 10
-109.096138
 20
33.274513
 11
-102.721138
 21
33.274513
  0
LINE
  8
LC-003-150-MLN-0
 62
     2
  6
DASHED
 10
-109.908638
 20
32.805416
 11
-109.096138
 21
33.274513
  0
LINE
  8
LC-003-150-MLN-0
 62
     2
  6
DASHED
 10
-109.908638
 20
17.274513
 11
-109.908638
 21
32.805416
  0
LINE
  8
LC-003-150-MLN-0
 62
     2
  6
DASHED
 10
-101.908638
 20
17.274513
 11
-101.908638
 21
32.805416
  0
LINE
  8
LC-003-150-MLN-0
 62
     2
  6
DASHED
 10
-110.408638
 20
17.274513
 11
-110.408638
 21
22.552025
  0
LINE
  8
LC-003-150-MLN-0
 62
     2
  6
DASHED
 10
-109.908638
 20
21.024513
 11
-101.908638
 21
21.024513
  0
LINE
  8
LC-003-150-MLN-0
 62
     2
  6
DASHED
 10
-109.908638
 20
32.805416
 11
-101.908638
 21
32.805416
  0
LINE
  8
LC-003-150-MLN-0
 62
     2
  6
DASHED
 10
-101.408638
 20
17.274513
 11
-101.408638
 21
22.551941
  0
LINE
  8
LC-003-150-MLN-0
 62
     2
  6
DASHED
 10
-102.721138
 20
43.474514
 11
-105.908638
 21
45.314819
  0
LINE
  8
LC-003-150-MLN-0
 62
     2
  6
DASHED
 10
-109.096138
 20
43.474514
 11
-105.908638
 21
45.314819
  0
LINE
  8
LC-003-150-MLN-0
 62
     2
  6
DASHED
 10
-109.096138
 20
33.274513
 11
-109.096138
 21
43.474514
  0
LINE
  8
LC-003-150-MLN-0
 62
     2
  6
DASHED
 10
-109.908638
 20
39.274513
 11
-109.908638
 21
32.805416
  0
LINE
  8
LC-003-150-MLN-0
 62
     2
  6
DASHED
 10
-109.096138
 20
43.474514
 11
-102.721138
 21
43.474514
  0
LINE
  8
LC-003-150-MLN-0
 62
     2
  6
DASHED
 10
-109.096138
 20
33.274513
 11
-109.096138
 21
21.024513
  0
LINE
  8
LC-003-150-MLN-0
 62
     2
  6
DASHED
 10
-101.908638
 20
39.274513
 11
-101.908638
 21
32.805416
  0
LINE
  8
LC-003-150-MLN-0
 62
     2
  6
DASHED
 10
-102.721138
 20
33.274513
 11
-102.721138
 21
21.024513
  0
LINE
  8
LC-003-150-MLN-0
 62
     2
  6
DASHED
 10
-113.408638
 20
1.261071
 11
-113.408638
 21
17.274513
  0
LINE
  8
LC-003-150-MLN-0
 62
     2
  6
DASHED
 10
-98.408638
 20
1.261071
 11
-98.408638
 21
17.274513
  0
LINE
  8
LC-003-150-MLN-0
 62
     2
  6
DASHED
 10
-47.348560
 20
39.274513
 11
-39.348560
 21
39.274513
  0
LINE
  8
LC-003-150-MLN-0
 62
     2
  6
DASHED
 10
160.060745
 20
39.274513
 11
168.060745
 21
39.274513
  0
LINE
  8
LC-003-150-MLN-0
 62
     2
  6
DASHED
 10
102.651436
 20
39.274513
 11
110.651436
 21
39.274513
  0
LINE
  8
LC-003-150-MLN-0
 62
     2
  6
DASHED
 10
167.248245
 20
33.274513
 11
167.248245
 21
43.474514
  0
LINE
  8
LC-003-150-MLN-0
 62
     2
  6
DASHED
 10
109.838936
 20
33.274513
 11
109.838936
 21
43.474514
  0
LINE
  8
LC-003-150-MLN-0
 62
     2
  6
DASHED
 10
100.151436
 20
17.274513
 11
113.151436
 21
17.274513
  0
LINE
  8
LC-003-150-MLN-0
 62
     2
  6
DASHED
 10
100.151436
 20
10.574514
 11
100.151436
 21
17.274513
  0
ARC
  8
LC-003-150-MLN-0
 62
     2
  6
DASHED
 10
101.451439
 20
10.574514
 40
1.300000
 50
180.000009
 51
269.999997
  0
LINE
  8
LC-003-150-MLN-0
 62
     2
  6
DASHED
 10
111.851440
 20
9.274514
 11
101.451439
 21
9.274514
  0
LINE
  8
LC-003-150-MLN-0
 62
     2
  6
DASHED
 10
113.151436
 20
10.574514
 11
113.151436
 21
17.274513
  0
ARC
  8
LC-003-150-MLN-0
 62
     2
  6
DASHED
 10
111.851440
 20
10.574514
 40
1.300000
 50
269.999997
 51
0.000000
  0
LINE
  8
LC-003-150-MLN-0
 62
     2
  6
DASHED
 10
110.651436
 20
32.805416
 11
109.838936
 21
33.274513
  0
LINE
  8
LC-003-150-MLN-0
 62
     2
  6
DASHED
 10
103.463936
 20
33.274513
 11
109.838936
 21
33.274513
  0
LINE
  8
LC-003-150-MLN-0
 62
     2
  6
DASHED
 10
102.651436
 20
32.805416
 11
103.463936
 21
33.274513
  0
LINE
  8
LC-003-150-MLN-0
 62
     2
  6
DASHED
 10
102.651436
 20
17.274513
 11
102.651436
 21
32.805416
  0
LINE
  8
LC-003-150-MLN-0
 62
     2
  6
DASHED
 10
110.651436
 20
17.274513
 11
110.651436
 21
32.805416
  0
LINE
  8
LC-003-150-MLN-0
 62
     2
  6
DASHED
 10
102.151436
 20
17.274513
 11
102.151436
 21
23.274513
  0
LINE
  8
LC-003-150-MLN-0
 62
     2
  6
DASHED
 10
102.651436
 20
21.024513
 11
110.651436
 21
21.024513
  0
LINE
  8
LC-003-150-MLN-0
 62
     2
  6
DASHED
 10
102.651436
 20
32.805416
 11
110.651436
 21
32.805416
  0
LINE
  8
LC-003-150-MLN-0
 62
     2
  6
DASHED
 10
111.151436
 20
17.274513
 11
111.151436
 21
23.274513
  0
LINE
  8
LC-003-150-MLN-0
 62
     2
  6
DASHED
 10
109.838936
 20
43.474514
 11
106.651436
 21
45.314819
  0
LINE
  8
LC-003-150-MLN-0
 62
     2
  6
DASHED
 10
-40.161060
 20
33.274513
 11
-40.161060
 21
43.474514
  0
LINE
  8
LC-003-150-MLN-0
 62
     2
  6
DASHED
 10
103.463936
 20
43.474514
 11
106.651436
 21
45.314819
  0
LINE
  8
LC-003-150-MLN-0
 62
     2
  6
DASHED
 10
103.463936
 20
33.274513
 11
103.463936
 21
43.474514
  0
LINE
  8
LC-003-150-MLN-0
 62
     2
  6
DASHED
 10
-49.848560
 20
17.274513
 11
-36.848560
 21
17.274513
  0
LINE
  8
LC-003-150-MLN-0
 62
     2
  6
DASHED
 10
102.651436
 20
39.274513
 11
102.651436
 21
32.805416
  0
LINE
  8
LC-003-150-MLN-0
 62
     2
  6
DASHED
 10
103.463936
 20
43.474514
 11
109.838936
 21
43.474514
  0
LINE
  8
LC-003-150-MLN-0
 62
     2
  6
DASHED
 10
103.463936
 20
33.274513
 11
103.463936
 21
21.024513
  0
LINE
  8
LC-003-150-MLN-0
 62
     2
  6
DASHED
 10
110.651436
 20
39.274513
 11
110.651436
 21
32.805416
  0
LINE
  8
LC-003-150-MLN-0
 62
     2
  6
DASHED
 10
109.838936
 20
33.274513
 11
109.838936
 21
21.024513
  0
LINE
  8
LC-003-150-MLN-0
 62
     2
  6
DASHED
 10
-49.848560
 20
10.574514
 11
-49.848560
 21
17.274513
  0
ARC
  8
LC-003-150-MLN-0
 62
     2
  6
DASHED
 10
-48.548561
 20
10.574514
 40
1.300000
 50
180.000009
 51
269.999997
  0
LINE
  8
LC-003-150-MLN-0
 62
     2
  6
DASHED
 10
99.151436
 20
1.261071
 11
99.151436
 21
17.274513
  0
LINE
  8
LC-003-150-MLN-0
 62
     2
  6
DASHED
 10
-38.148563
 20
9.274514
 11
-48.548561
 21
9.274514
  0
LINE
  8
LC-003-150-MLN-0
 62
     2
  6
DASHED
 10
157.560745
 20
17.274513
 11
170.560745
 21
17.274513
  0
LINE
  8
LC-003-150-MLN-0
 62
     2
  6
DASHED
 10
-36.848560
 20
10.574514
 11
-36.848560
 21
17.274513
  0
ARC
  8
LC-003-150-MLN-0
 62
     2
  6
DASHED
 10
-38.148563
 20
10.574514
 40
1.300000
 50
269.999997
 51
0.000000
  0
LINE
  8
LC-003-150-MLN-0
 62
     2
  6
DASHED
 10
-39.348560
 20
32.805416
 11
-40.161060
 21
33.274513
  0
LINE
  8
LC-003-150-MLN-0
 62
     2
  6
DASHED
 10
-46.536060
 20
33.274513
 11
-40.161060
 21
33.274513
  0
LINE
  8
LC-003-150-MLN-0
 62
     2
  6
DASHED
 10
-47.348560
 20
32.805416
 11
-46.536060
 21
33.274513
  0
LINE
  8
LC-003-150-MLN-0
 62
     2
  6
DASHED
 10
-47.348560
 20
17.274513
 11
-47.348560
 21
32.805416
  0
LINE
  8
LC-003-150-MLN-0
 62
     2
  6
DASHED
 10
-39.348560
 20
17.274513
 11
-39.348560
 21
32.805416
  0
LINE
  8
LC-003-150-MLN-0
 62
     2
  6
DASHED
 10
-47.848560
 20
17.274513
 11
-47.848560
 21
23.274513
  0
LINE
  8
LC-003-150-MLN-0
 62
     2
  6
DASHED
 10
-47.348560
 20
21.024513
 11
-39.348560
 21
21.024513
  0
LINE
  8
LC-003-150-MLN-0
 62
     2
  6
DASHED
 10
-47.348560
 20
32.805416
 11
-39.348560
 21
32.805416
  0
LINE
  8
LC-003-150-MLN-0
 62
     2
  6
DASHED
 10
-38.848560
 20
17.274513
 11
-38.848560
 21
23.274513
  0
LINE
  8
LC-003-150-MLN-0
 62
     2
  6
DASHED
 10
-40.161060
 20
43.474514
 11
-43.348560
 21
45.314819
  0
LINE
  8
LC-003-150-MLN-0
 62
     2
  6
DASHED
 10
-46.536060
 20
43.474514
 11
-43.348560
 21
45.314819
  0
LINE
  8
LC-003-150-MLN-0
 62
     2
  6
DASHED
 10
-46.536060
 20
33.274513
 11
-46.536060
 21
43.474514
  0
LINE
  8
LC-003-150-MLN-0
 62
     2
  6
DASHED
 10
-47.348560
 20
39.274513
 11
-47.348560
 21
32.805416
  0
LINE
  8
LC-003-150-MLN-0
 62
     2
  6
DASHED
 10
-46.536060
 20
43.474514
 11
-40.161060
 21
43.474514
  0
LINE
  8
LC-003-150-MLN-0
 62
     2
  6
DASHED
 10
-46.536060
 20
33.274513
 11
-46.536060
 21
21.024513
  0
LINE
  8
LC-003-150-MLN-0
 62
     2
  6
DASHED
 10
-39.348560
 20
39.274513
 11
-39.348560
 21
32.805416
  0
LINE
  8
LC-003-150-MLN-0
 62
     2
  6
DASHED
 10
-40.161060
 20
33.274513
 11
-40.161060
 21
21.024513
  0
LINE
  8
LC-003-150-MLN-0
 62
     2
  6
DASHED
 10
-50.848560
 20
1.261071
 11
-50.848560
 21
17.274513
  0
LINE
  8
LC-003-150-MLN-0
 62
     2
  6
DASHED
 10
-35.848560
 20
1.261071
 11
-35.848560
 21
17.274513
  0
LINE
  8
LC-003-002-----0
 62
     1
  6
CONTINUOUS
 10
-53.348427
 20
23.274513
 11
-53.348427
 21
1.261072
  0
LINE
  8
LC-003-150-MLN-0
 62
     2
  6
DASHED
 10
114.151436
 20
1.261071
 11
114.151436
 21
17.274513
  0
LINE
  8
LC-003-150-MLN-0
 62
     2
  6
DASHED
 10
157.560745
 20
10.574514
 11
157.560745
 21
17.274513
  0
ARC
  8
LC-003-150-MLN-0
 62
     2
  6
DASHED
 10
158.860748
 20
10.574514
 40
1.300000
 50
180.000009
 51
269.999997
  0
LINE
  8
LC-003-150-MLN-0
 62
     2
  6
DASHED
 10
169.260757
 20
9.274514
 11
158.860748
 21
9.274514
  0
LINE
  8
LC-003-150-MLN-0
 62
     2
  6
DASHED
 10
170.560745
 20
10.574514
 11
170.560745
 21
17.274513
  0
ARC
  8
LC-003-150-MLN-0
 62
     2
  6
DASHED
 10
169.260757
 20
10.574514
 40
1.300000
 50
269.999997
 51
0.000000
  0
LINE
  8
LC-003-150-MLN-0
 62
     2
  6
DASHED
 10
168.060745
 20
32.805416
 11
167.248245
 21
33.274513
  0
LINE
  8
LC-003-150-MLN-0
 62
     2
  6
DASHED
 10
160.873245
 20
33.274513
 11
167.248245
 21
33.274513
  0
LINE
  8
LC-003-150-MLN-0
 62
     2
  6
DASHED
 10
160.060745
 20
32.805416
 11
160.873245
 21
33.274513
  0
LINE
  8
LC-003-150-MLN-0
 62
     2
  6
DASHED
 10
160.060745
 20
17.274513
 11
160.060745
 21
32.805416
  0
LINE
  8
LC-003-150-MLN-0
 62
     2
  6
DASHED
 10
168.060745
 20
17.274513
 11
168.060745
 21
32.805416
  0
LINE
  8
LC-003-150-MLN-0
 62
     2
  6
DASHED
 10
159.560745
 20
17.274513
 11
159.560745
 21
23.274513
  0
LINE
  8
LC-003-150-MLN-0
 62
     2
  6
DASHED
 10
160.060745
 20
21.024513
 11
168.060745
 21
21.024513
  0
LINE
  8
LC-003-150-MLN-0
 62
     2
  6
DASHED
 10
160.060745
 20
32.805416
 11
168.060745
 21
32.805416
  0
LINE
  8
LC-003-150-MLN-0
 62
     2
  6
DASHED
 10
168.560745
 20
17.274513
 11
168.560745
 21
23.274513
  0
LINE
  8
LC-003-150-MLN-0
 62
     2
  6
DASHED
 10
167.248245
 20
43.474514
 11
164.060745
 21
45.314819
  0
LINE
  8
LC-003-150-MLN-0
 62
     2
  6
DASHED
 10
160.873245
 20
43.474514
 11
164.060745
 21
45.314819
  0
LINE
  8
LC-003-150-MLN-0
 62
     2
  6
DASHED
 10
160.873245
 20
33.274513
 11
160.873245
 21
43.474514
  0
LINE
  8
LC-003-150-MLN-0
 62
     2
  6
DASHED
 10
160.060745
 20
39.274513
 11
160.060745
 21
32.805416
  0
LINE
  8
LC-003-150-MLN-0
 62
     2
  6
DASHED
 10
160.873245
 20
43.474514
 11
167.248245
 21
43.474514
  0
LINE
  8
LC-003-150-MLN-0
 62
     2
  6
DASHED
 10
160.873245
 20
33.274513
 11
160.873245
 21
21.024513
  0
LINE
  8
LC-003-150-MLN-0
 62
     2
  6
DASHED
 10
168.060745
 20
39.274513
 11
168.060745
 21
32.805416
  0
LINE
  8
LC-003-150-MLN-0
 62
     2
  6
DASHED
 10
167.248245
 20
33.274513
 11
167.248245
 21
21.024513
  0
LINE
  8
LC-003-150-MLN-0
 62
     2
  6
DASHED
 10
156.560745
 20
1.261071
 11
156.560745
 21
17.274513
  0
LINE
  8
LC-003-150-MLN-0
 62
     2
  6
DASHED
 10
171.560745
 20
1.261071
 11
171.560745
 21
17.274513
  0
LINE
  8
LC-003-150-MLN-0
 62
     2
  6
DASHED
 10
310.060760
 20
39.274513
 11
318.060760
 21
39.274513
  0
LINE
  8
LC-003-150-MLN-0
 62
     2
  6
DASHED
 10
317.248260
 20
33.274513
 11
317.248260
 21
43.474514
  0
LINE
  8
LC-003-150-MLN-0
 62
     2
  6
DASHED
 10
307.560760
 20
17.274513
 11
320.560760
 21
17.274513
  0
LINE
  8
LC-003-150-MLN-0
 62
     2
  6
DASHED
 10
307.560760
 20
10.574514
 11
307.560760
 21
17.274513
  0
ARC
  8
LC-003-150-MLN-0
 62
     2
  6
DASHED
 10
308.860748
 20
10.574514
 40
1.300000
 50
180.000009
 51
269.999997
  0
LINE
  8
LC-003-150-MLN-0
 62
     2
  6
DASHED
 10
319.260742
 20
9.274514
 11
308.860748
 21
9.274514
  0
LINE
  8
LC-003-150-MLN-0
 62
     2
  6
DASHED
 10
320.560760
 20
10.574514
 11
320.560760
 21
17.274513
  0
ARC
  8
LC-003-150-MLN-0
 62
     2
  6
DASHED
 10
319.260742
 20
10.574514
 40
1.300000
 50
269.999997
 51
0.000000
  0
LINE
  8
LC-003-150-MLN-0
 62
     2
  6
DASHED
 10
318.060760
 20
32.805416
 11
317.248260
 21
33.274513
  0
LINE
  8
LC-003-150-MLN-0
 62
     2
  6
DASHED
 10
310.873260
 20
33.274513
 11
317.248260
 21
33.274513
  0
LINE
  8
LC-003-150-MLN-0
 62
     2
  6
DASHED
 10
310.060760
 20
32.805416
 11
310.873260
 21
33.274513
  0
LINE
  8
LC-003-150-MLN-0
 62
     2
  6
DASHED
 10
310.060760
 20
17.274513
 11
310.060760
 21
32.805416
  0
LINE
  8
LC-003-150-MLN-0
 62
     2
  6
DASHED
 10
318.060760
 20
17.274513
 11
318.060760
 21
32.805416
  0
LINE
  8
LC-003-150-MLN-0
 62
     2
  6
DASHED
 10
309.560760
 20
17.274513
 11
309.560760
 21
23.274513
  0
LINE
  8
LC-003-150-MLN-0
 62
     2
  6
DASHED
 10
310.060760
 20
21.024513
 11
318.060760
 21
21.024513
  0
LINE
  8
LC-003-150-MLN-0
 62
     2
  6
DASHED
 10
310.060760
 20
32.805416
 11
318.060760
 21
32.805416
  0
LINE
  8
LC-003-150-MLN-0
 62
     2
  6
DASHED
 10
318.560760
 20
17.274513
 11
318.560760
 21
23.274513
  0
LINE
  8
LC-003-150-MLN-0
 62
     2
  6
DASHED
 10
317.248260
 20
43.474514
 11
314.060760
 21
45.314819
  0
LINE
  8
LC-003-150-MLN-0
 62
     2
  6
DASHED
 10
310.873260
 20
43.474514
 11
314.060760
 21
45.314819
  0
LINE
  8
LC-003-150-MLN-0
 62
     2
  6
DASHED
 10
310.873260
 20
33.274513
 11
310.873260
 21
43.474514
  0
LINE
  8
LC-003-150-MLN-0
 62
     2
  6
DASHED
 10
310.060760
 20
39.274513
 11
310.060760
 21
32.805416
  0
LINE
  8
LC-003-150-MLN-0
 62
     2
  6
DASHED
 10
310.873260
 20
43.474514
 11
317.248260
 21
43.474514
  0
LINE
  8
LC-003-150-MLN-0
 62
     2
  6
DASHED
 10
310.873260
 20
33.274513
 11
310.873260
 21
21.024513
  0
LINE
  8
LC-003-150-MLN-0
 62
     2
  6
DASHED
 10
318.060760
 20
39.274513
 11
318.060760
 21
32.805416
  0
LINE
  8
LC-003-150-MLN-0
 62
     2
  6
DASHED
 10
317.248260
 20
33.274513
 11
317.248260
 21
21.024513
  0
LINE
  8
LC-003-150-MLN-0
 62
     2
  6
DASHED
 10
306.560760
 20
1.261071
 11
306.560760
 21
17.274513
  0
LINE
  8
LC-003-150-MLN-0
 62
     2
  6
DASHED
 10
321.560760
 20
1.261071
 11
321.560760
 21
17.274513
  0
LINE
  8
LC-003-002-----0
 62
     1
  6
CONTINUOUS
 10
324.060883
 20
23.274513
 11
324.060883
 21
1.261072
  0
ENDSEC
  0
EOF
