  0
SECTION
  2
HEADER
  9
$LIMMIN
 10
439.250519
 20
584.150452
  9
$LIMMAX
 10
921.093079
 20
651.435303
  9
$EXTMIN
 10
439.250519
 20
584.150452
  9
$EXTMAX
 10
921.093079
 20
651.435303
  0
ENDSEC
  0
SECTION
  2
TABLES
  0
TABLE
  2
LTYPE
 70
     3
  0
LTYPE
  2
CONTINUOUS
 70
    64
  3
Ausgezogene Linie
 72
    65
 73
     0
 40
0.0
  0
LTYPE
  2
DASHED
 70
    64
  3
__ __ __ __ __ __ __ __ __ __ __ __ __ __ __
 72
    65
 73
     2
 40
0.75
 49
0.5
 49
-0.25
  0
LTYPE
  2
DASHDOT
 70
    64
  3
__ . __ . __ . __ . __ . __ . __ . __ . __ . __
 72
    65
 73
     4
 40
1.0
 49
0.5
 49
-0.25
 49
0.0
 49
-0.25
  0
ENDTAB
  0
TABLE
  2
LAYER
 70
     5
  0
LAYER
  2
LC-INFO-1-1-MM-A0-0
 70
    64
 62
     7
  6
CONTINUOUS
  0
LAYER
  2
LC-003-002-----0
 70
    64
 62
     7
  6
CONTINUOUS
  0
LAYER
  2
LC-001-150-----0
 70
    64
 62
     7
  6
CONTINUOUS
  0
LAYER
  2
LC-003-150-MLN-0
 70
    64
 62
     7
  6
CONTINUOUS
  0
LAYER
  2
LC-004-160-----0
 70
    64
 62
     7
  6
CONTINUOUS
  0
ENDTAB
  0
TABLE
  2
STYLE
 70
     1
  0
STYLE
  2
TXT8
 70
    64
 40
0.0
 41
1.0
 50
0.0
 71
     0
 42
3.500000
  3
TXT8
  4

  0
ENDTAB
  0
ENDSEC
  0
SECTION
  2
BLOCKS
  0
ENDSEC
  0
SECTION
  2
ENTITIES
  0
LINE
  8
LC-004-160-----0
 62
     2
  6
CONTINUOUS
 10
728.538574
 20
649.589905
 11
728.300354
 21
648.869202
  0
LINE
  8
LC-004-160-----0
 62
     2
  6
CONTINUOUS
 10
728.300354
 20
648.869202
 11
727.725342
 21
646.967468
  0
LINE
  8
LC-004-160-----0
 62
     2
  6
CONTINUOUS
 10
727.725342
 20
646.967468
 11
727.023315
 21
644.274841
  0
LINE
  8
LC-004-160-----0
 62
     2
  6
CONTINUOUS
 10
727.023315
 20
644.274841
 11
726.403748
 21
641.181641
  0
LINE
  8
LC-004-160-----0
 62
     2
  6
CONTINUOUS
 10
726.403748
 20
641.181641
 11
726.076416
 21
638.078125
  0
LINE
  8
LC-004-160-----0
 62
     2
  6
CONTINUOUS
 10
726.076416
 20
638.078125
 11
726.161499
 21
635.576904
  0
LINE
  8
LC-004-160-----0
 62
     2
  6
CONTINUOUS
 10
726.161499
 20
635.576904
 11
726.560303
 21
633.323181
  0
LINE
  8
LC-004-160-----0
 62
     2
  6
CONTINUOUS
 10
726.560303
 20
633.323181
 11
727.191772
 21
631.265381
  0
LINE
  8
LC-004-160-----0
 62
     2
  6
CONTINUOUS
 10
727.191772
 20
631.265381
 11
728.828308
 21
627.531555
  0
LINE
  8
LC-004-160-----0
 62
     2
  6
CONTINUOUS
 10
728.828308
 20
627.531555
 11
730.422424
 21
623.963623
  0
LINE
  8
LC-004-160-----0
 62
     2
  6
CONTINUOUS
 10
730.422424
 20
623.963623
 11
731.000793
 21
622.113037
  0
LINE
  8
LC-004-160-----0
 62
     2
  6
CONTINUOUS
 10
731.000793
 20
622.113037
 11
731.000793
 21
622.113037
  0
LINE
  8
LC-004-160-----0
 62
     2
  6
CONTINUOUS
 10
731.000793
 20
622.113037
 11
731.349121
 21
620.121094
  0
LINE
  8
LC-004-160-----0
 62
     2
  6
CONTINUOUS
 10
731.349121
 20
620.121094
 11
731.469421
 21
618.035645
  0
LINE
  8
LC-004-160-----0
 62
     2
  6
CONTINUOUS
 10
731.469421
 20
618.035645
 11
731.397949
 21
615.880859
  0
LINE
  8
LC-004-160-----0
 62
     2
  6
CONTINUOUS
 10
731.397949
 20
615.880859
 11
731.171021
 21
613.680847
  0
LINE
  8
LC-004-160-----0
 62
     2
  6
CONTINUOUS
 10
731.171021
 20
613.680847
 11
730.824951
 21
611.459900
  0
LINE
  8
LC-004-160-----0
 62
     2
  6
CONTINUOUS
 10
730.824951
 20
611.459900
 11
730.337891
 21
608.900696
  0
LINE
  8
LC-004-160-----0
 62
     2
  6
CONTINUOUS
 10
730.337891
 20
608.900696
 11
729.878296
 21
606.389893
  0
LINE
  8
LC-004-160-----0
 62
     2
  6
CONTINUOUS
 10
729.878296
 20
606.389893
 11
729.584229
 21
603.971558
  0
LINE
  8
LC-004-160-----0
 62
     2
  6
CONTINUOUS
 10
729.584229
 20
603.971558
 11
729.593811
 21
601.689880
  0
LINE
  8
LC-004-160-----0
 62
     2
  6
CONTINUOUS
 10
729.593811
 20
601.689880
 11
729.889221
 21
599.922241
  0
LINE
  8
LC-004-160-----0
 62
     2
  6
CONTINUOUS
 10
729.889221
 20
599.922241
 11
730.343506
 21
598.118774
  0
LINE
  8
LC-004-160-----0
 62
     2
  6
CONTINUOUS
 10
730.343506
 20
598.118774
 11
730.818604
 21
596.122131
  0
LINE
  8
LC-004-160-----0
 62
     2
  6
CONTINUOUS
 10
730.818604
 20
596.122131
 11
731.176636
 21
593.775085
  0
LINE
  8
LC-004-160-----0
 62
     2
  6
CONTINUOUS
 10
731.176636
 20
593.775085
 11
731.326782
 21
590.553955
  0
LINE
  8
LC-004-160-----0
 62
     2
  6
CONTINUOUS
 10
731.326782
 20
590.553955
 11
731.290222
 21
587.773560
  0
LINE
  8
LC-004-160-----0
 62
     2
  6
CONTINUOUS
 10
731.290222
 20
587.773560
 11
731.239685
 21
586.589905
  0
LINE
  8
LC-004-160-----0
 62
     2
  6
CONTINUOUS
 10
720.800232
 20
649.589905
 11
720.562012
 21
648.869202
  0
LINE
  8
LC-004-160-----0
 62
     2
  6
CONTINUOUS
 10
720.562012
 20
648.869202
 11
719.987061
 21
646.967468
  0
LINE
  8
LC-004-160-----0
 62
     2
  6
CONTINUOUS
 10
719.987061
 20
646.967468
 11
719.284973
 21
644.274841
  0
LINE
  8
LC-004-160-----0
 62
     2
  6
CONTINUOUS
 10
719.284973
 20
644.274841
 11
718.665405
 21
641.181641
  0
LINE
  8
LC-004-160-----0
 62
     2
  6
CONTINUOUS
 10
718.665405
 20
641.181641
 11
718.338074
 21
638.078125
  0
LINE
  8
LC-004-160-----0
 62
     2
  6
CONTINUOUS
 10
718.338074
 20
638.078125
 11
718.423157
 21
635.576904
  0
LINE
  8
LC-004-160-----0
 62
     2
  6
CONTINUOUS
 10
718.423157
 20
635.576904
 11
718.821960
 21
633.323181
  0
LINE
  8
LC-004-160-----0
 62
     2
  6
CONTINUOUS
 10
718.821960
 20
633.323181
 11
719.453430
 21
631.265381
  0
LINE
  8
LC-004-160-----0
 62
     2
  6
CONTINUOUS
 10
719.453430
 20
631.265381
 11
721.089966
 21
627.531555
  0
LINE
  8
LC-004-160-----0
 62
     2
  6
CONTINUOUS
 10
721.089966
 20
627.531555
 11
722.684082
 21
623.963623
  0
LINE
  8
LC-004-160-----0
 62
     2
  6
CONTINUOUS
 10
722.684082
 20
623.963623
 11
723.262451
 21
622.113037
  0
LINE
  8
LC-004-160-----0
 62
     2
  6
CONTINUOUS
 10
723.262451
 20
622.113037
 11
723.262451
 21
622.113037
  0
LINE
  8
LC-004-160-----0
 62
     2
  6
CONTINUOUS
 10
723.262451
 20
622.113037
 11
723.610779
 21
620.121094
  0
LINE
  8
LC-004-160-----0
 62
     2
  6
CONTINUOUS
 10
723.610779
 20
620.121094
 11
723.731079
 21
618.035645
  0
LINE
  8
LC-004-160-----0
 62
     2
  6
CONTINUOUS
 10
723.731079
 20
618.035645
 11
723.659607
 21
615.880859
  0
LINE
  8
LC-004-160-----0
 62
     2
  6
CONTINUOUS
 10
723.659607
 20
615.880859
 11
723.432678
 21
613.680847
  0
LINE
  8
LC-004-160-----0
 62
     2
  6
CONTINUOUS
 10
723.432678
 20
613.680847
 11
723.086609
 21
611.459900
  0
LINE
  8
LC-004-160-----0
 62
     2
  6
CONTINUOUS
 10
723.086609
 20
611.459900
 11
722.599548
 21
608.900696
  0
LINE
  8
LC-004-160-----0
 62
     2
  6
CONTINUOUS
 10
722.599548
 20
608.900696
 11
722.139954
 21
606.389893
  0
LINE
  8
LC-004-160-----0
 62
     2
  6
CONTINUOUS
 10
722.139954
 20
606.389893
 11
721.845886
 21
603.971558
  0
LINE
  8
LC-004-160-----0
 62
     2
  6
CONTINUOUS
 10
721.845886
 20
603.971558
 11
721.855469
 21
601.689880
  0
LINE
  8
LC-004-160-----0
 62
     2
  6
CONTINUOUS
 10
721.855469
 20
601.689880
 11
722.150879
 21
599.922241
  0
LINE
  8
LC-004-160-----0
 62
     2
  6
CONTINUOUS
 10
722.150879
 20
599.922241
 11
722.605164
 21
598.118774
  0
LINE
  8
LC-004-160-----0
 62
     2
  6
CONTINUOUS
 10
722.605164
 20
598.118774
 11
723.080261
 21
596.122131
  0
LINE
  8
LC-004-160-----0
 62
     2
  6
CONTINUOUS
 10
723.080261
 20
596.122131
 11
723.438354
 21
593.775085
  0
LINE
  8
LC-004-160-----0
 62
     2
  6
CONTINUOUS
 10
723.438354
 20
593.775085
 11
723.588440
 21
590.553955
  0
LINE
  8
LC-004-160-----0
 62
     2
  6
CONTINUOUS
 10
723.588440
 20
590.553955
 11
723.551880
 21
587.773560
  0
LINE
  8
LC-004-160-----0
 62
     2
  6
CONTINUOUS
 10
723.551880
 20
587.773560
 11
723.501343
 21
586.589905
  0
LINE
  8
LC-003-002-----0
 62
     1
  6
CONTINUOUS
 10
448.178772
 20
586.589905
 11
474.178772
 21
586.589905
  0
LINE
  8
LC-003-002-----0
 62
     1
  6
CONTINUOUS
 10
448.178772
 20
586.589905
 11
448.178772
 21
601.689880
  0
LINE
  8
LC-003-002-----0
 62
     1
  6
CONTINUOUS
 10
474.178772
 20
586.589905
 11
474.178772
 21
601.689880
  0
LINE
  8
LC-001-150-----0
 62
     2
  6
DASHDOT
 10
461.178772
 20
584.150452
 11
461.178772
 21
651.435303
  0
LINE
  8
LC-003-002-----0
 62
     1
  6
CONTINUOUS
 10
469.622925
 20
611.459900
 11
474.178772
 21
601.689880
  0
LINE
  8
LC-001-150-----0
 62
     2
  6
DASHDOT
 10
439.250519
 20
629.589905
 11
483.008148
 21
629.589905
  0
LINE
  8
LC-003-002-----0
 62
     1
  6
CONTINUOUS
 10
452.734589
 20
611.459900
 11
448.178772
 21
601.689880
  0
CIRCLE
  8
LC-003-002-----0
 62
     1
  6
CONTINUOUS
 10
461.178772
 20
629.589905
 40
20.000000
  0
CIRCLE
  8
LC-003-002-----0
 62
     1
  6
CONTINUOUS
 10
461.178772
 20
629.589905
 40
19.000000
  0
LINE
  8
LC-003-002-----0
 62
     1
  6
CONTINUOUS
 10
535.762817
 20
586.589905
 11
723.501343
 21
586.589905
  0
LINE
  8
LC-001-150-----0
 62
     2
  6
DASHDOT
 10
532.855774
 20
629.589905
 11
921.093079
 21
629.589905
  0
LINE
  8
LC-003-002-----0
 62
     1
  6
CONTINUOUS
 10
535.762817
 20
611.459900
 11
723.086609
 21
611.459900
  0
LINE
  8
LC-003-002-----0
 62
     1
  6
CONTINUOUS
 10
535.762817
 20
586.589905
 11
535.762817
 21
611.459900
  0
LINE
  8
LC-003-002-----0
 62
     1
  6
CONTINUOUS
 10
535.762817
 20
601.689880
 11
721.855469
 21
601.689880
  0
LINE
  8
LC-003-002-----0
 62
     1
  6
CONTINUOUS
 10
536.762817
 20
649.589905
 11
720.800232
 21
649.589905
  0
LINE
  8
LC-003-002-----0
 62
     1
  6
CONTINUOUS
 10
535.762817
 20
648.589905
 11
536.762817
 21
649.589905
  0
LINE
  8
LC-003-002-----0
 62
     1
  6
CONTINUOUS
 10
916.172180
 20
649.589905
 11
917.172180
 21
648.589905
  0
LINE
  8
LC-003-002-----0
 62
     1
  6
CONTINUOUS
 10
917.172180
 20
586.589905
 11
731.239685
 21
586.589905
  0
LINE
  8
LC-003-002-----0
 62
     1
  6
CONTINUOUS
 10
916.172180
 20
649.589905
 11
916.172180
 21
611.459900
  0
LINE
  8
LC-003-002-----0
 62
     1
  6
CONTINUOUS
 10
917.172180
 20
648.589905
 11
917.172180
 21
611.459900
  0
LINE
  8
LC-003-002-----0
 62
     1
  6
CONTINUOUS
 10
536.762817
 20
649.589905
 11
536.762817
 21
611.459900
  0
LINE
  8
LC-003-002-----0
 62
     1
  6
CONTINUOUS
 10
729.576172
 20
601.689880
 11
917.172180
 21
601.689880
  0
LINE
  8
LC-003-002-----0
 62
     1
  6
CONTINUOUS
 10
730.788208
 20
611.459900
 11
917.172180
 21
611.459900
  0
LINE
  8
LC-003-002-----0
 62
     1
  6
CONTINUOUS
 10
728.538574
 20
649.589905
 11
916.172180
 21
649.589905
  0
LINE
  8
LC-003-150-MLN-0
 62
     2
  6
DASHED
 10
453.178619
 20
604.459900
 11
469.178619
 21
604.459900
  0
LINE
  8
LC-003-002-----0
 62
     1
  6
CONTINUOUS
 10
535.762817
 20
611.459900
 11
535.762817
 21
648.589905
  0
LINE
  8
LC-003-150-MLN-0
 62
     2
  6
DASHED
 10
539.762695
 20
604.459900
 11
555.762695
 21
604.459900
  0
LINE
  8
LC-003-150-MLN-0
 62
     2
  6
DASHED
 10
542.762695
 20
630.459900
 11
552.762695
 21
630.459900
  0
LINE
  8
LC-003-150-MLN-0
 62
     2
  6
DASHED
 10
551.787720
 20
624.459900
 11
551.787720
 21
637.759888
  0
LINE
  8
LC-003-150-MLN-0
 62
     2
  6
DASHED
 10
539.762695
 20
596.059875
 11
539.762695
 21
604.459900
  0
ARC
  8
LC-003-150-MLN-0
 62
     2
  6
DASHED
 10
541.362732
 20
596.059875
 40
1.600000
 50
180.000009
 51
269.999997
  0
LINE
  8
LC-003-150-MLN-0
 62
     2
  6
DASHED
 10
554.162720
 20
594.459900
 11
541.362732
 21
594.459900
  0
LINE
  8
LC-003-150-MLN-0
 62
     2
  6
DASHED
 10
555.762695
 20
596.059875
 11
555.762695
 21
604.459900
  0
ARC
  8
LC-003-150-MLN-0
 62
     2
  6
DASHED
 10
554.162720
 20
596.059875
 40
1.600000
 50
269.999997
 51
0.000000
  0
LINE
  8
LC-003-150-MLN-0
 62
     2
  6
DASHED
 10
552.762695
 20
623.896973
 11
551.787720
 21
624.459900
  0
LINE
  8
LC-003-150-MLN-0
 62
     2
  6
DASHED
 10
543.737732
 20
624.459900
 11
551.787720
 21
624.459900
  0
LINE
  8
LC-003-150-MLN-0
 62
     2
  6
DASHED
 10
542.762695
 20
623.896973
 11
543.737732
 21
624.459900
  0
LINE
  8
LC-003-150-MLN-0
 62
     2
  6
DASHED
 10
456.178619
 20
630.459900
 11
466.178619
 21
630.459900
  0
LINE
  8
LC-003-150-MLN-0
 62
     2
  6
DASHED
 10
465.203613
 20
624.459900
 11
465.203613
 21
637.759888
  0
LINE
  8
LC-003-150-MLN-0
 62
     2
  6
DASHED
 10
542.262695
 20
604.459900
 11
542.262695
 21
611.459900
  0
LINE
  8
LC-003-150-MLN-0
 62
     2
  6
DASHED
 10
453.178619
 20
596.059875
 11
453.178619
 21
604.459900
  0
ARC
  8
LC-003-150-MLN-0
 62
     2
  6
DASHED
 10
454.778625
 20
596.059875
 40
1.600000
 50
180.000009
 51
269.999997
  0
LINE
  8
LC-003-150-MLN-0
 62
     2
  6
DASHED
 10
467.578613
 20
594.459900
 11
454.778625
 21
594.459900
  0
LINE
  8
LC-003-150-MLN-0
 62
     2
  6
DASHED
 10
469.178619
 20
596.059875
 11
469.178619
 21
604.459900
  0
ARC
  8
LC-003-150-MLN-0
 62
     2
  6
DASHED
 10
467.578613
 20
596.059875
 40
1.600000
 50
269.999997
 51
0.000000
  0
LINE
  8
LC-003-150-MLN-0
 62
     2
  6
DASHED
 10
466.178619
 20
623.896973
 11
465.203613
 21
624.459900
  0
LINE
  8
LC-003-150-MLN-0
 62
     2
  6
DASHED
 10
457.153625
 20
624.459900
 11
465.203613
 21
624.459900
  0
LINE
  8
LC-003-150-MLN-0
 62
     2
  6
DASHED
 10
456.178619
 20
623.896973
 11
457.153625
 21
624.459900
  0
LINE
  8
LC-003-150-MLN-0
 62
     2
  6
DASHED
 10
455.678619
 20
604.459900
 11
455.678619
 21
610.361023
  0
LINE
  8
LC-003-150-MLN-0
 62
     2
  6
DASHED
 10
456.178619
 20
608.959900
 11
466.178619
 21
608.959900
  0
LINE
  8
LC-003-150-MLN-0
 62
     2
  6
DASHED
 10
456.178619
 20
623.896973
 11
466.178619
 21
623.896973
  0
LINE
  8
LC-003-150-MLN-0
 62
     2
  6
DASHED
 10
466.678619
 20
604.459900
 11
466.678619
 21
610.360962
  0
LINE
  8
LC-003-150-MLN-0
 62
     2
  6
DASHED
 10
465.203613
 20
637.759888
 11
461.178619
 21
640.083740
  0
LINE
  8
LC-003-150-MLN-0
 62
     2
  6
DASHED
 10
457.153625
 20
637.759888
 11
461.178619
 21
640.083740
  0
LINE
  8
LC-003-150-MLN-0
 62
     2
  6
DASHED
 10
457.153625
 20
624.459900
 11
457.153625
 21
637.759888
  0
LINE
  8
LC-003-150-MLN-0
 62
     2
  6
DASHED
 10
542.762695
 20
608.959900
 11
552.762695
 21
608.959900
  0
LINE
  8
LC-003-150-MLN-0
 62
     2
  6
DASHED
 10
456.178619
 20
630.459900
 11
456.178619
 21
623.896973
  0
LINE
  8
LC-003-150-MLN-0
 62
     2
  6
DASHED
 10
457.153625
 20
637.759888
 11
465.203613
 21
637.759888
  0
LINE
  8
LC-003-150-MLN-0
 62
     2
  6
DASHED
 10
542.762695
 20
623.896973
 11
552.762695
 21
623.896973
  0
LINE
  8
LC-003-150-MLN-0
 62
     2
  6
DASHED
 10
457.153625
 20
624.459900
 11
457.153625
 21
608.959900
  0
LINE
  8
LC-003-150-MLN-0
 62
     2
  6
DASHED
 10
466.178619
 20
630.459900
 11
466.178619
 21
623.896973
  0
LINE
  8
LC-003-150-MLN-0
 62
     2
  6
DASHED
 10
465.203613
 20
624.459900
 11
465.203613
 21
608.959900
  0
LINE
  8
LC-003-150-MLN-0
 62
     2
  6
DASHED
 10
452.178619
 20
586.589905
 11
452.178619
 21
604.459900
  0
LINE
  8
LC-003-150-MLN-0
 62
     2
  6
DASHED
 10
470.178619
 20
586.589905
 11
470.178619
 21
604.459900
  0
LINE
  8
LC-003-150-MLN-0
 62
     2
  6
DASHED
 10
553.262695
 20
604.459900
 11
553.262695
 21
611.459900
  0
LINE
  8
LC-003-150-MLN-0
 62
     2
  6
DASHED
 10
551.787720
 20
637.759888
 11
547.762695
 21
640.083740
  0
LINE
  8
LC-003-150-MLN-0
 62
     2
  6
DASHED
 10
689.762695
 20
604.459900
 11
705.762695
 21
604.459900
  0
LINE
  8
LC-003-150-MLN-0
 62
     2
  6
DASHED
 10
692.762695
 20
630.459900
 11
702.762695
 21
630.459900
  0
LINE
  8
LC-003-150-MLN-0
 62
     2
  6
DASHED
 10
701.787720
 20
624.459900
 11
701.787720
 21
637.759888
  0
LINE
  8
LC-003-150-MLN-0
 62
     2
  6
DASHED
 10
689.762695
 20
596.059875
 11
689.762695
 21
604.459900
  0
ARC
  8
LC-003-150-MLN-0
 62
     2
  6
DASHED
 10
691.362732
 20
596.059875
 40
1.600000
 50
180.000009
 51
269.999997
  0
LINE
  8
LC-003-150-MLN-0
 62
     2
  6
DASHED
 10
704.162720
 20
594.459900
 11
691.362732
 21
594.459900
  0
LINE
  8
LC-003-150-MLN-0
 62
     2
  6
DASHED
 10
705.762695
 20
596.059875
 11
705.762695
 21
604.459900
  0
ARC
  8
LC-003-150-MLN-0
 62
     2
  6
DASHED
 10
704.162720
 20
596.059875
 40
1.600000
 50
269.999997
 51
0.000000
  0
LINE
  8
LC-003-150-MLN-0
 62
     2
  6
DASHED
 10
702.762695
 20
623.896973
 11
701.787720
 21
624.459900
  0
LINE
  8
LC-003-150-MLN-0
 62
     2
  6
DASHED
 10
693.737732
 20
624.459900
 11
701.787720
 21
624.459900
  0
LINE
  8
LC-003-150-MLN-0
 62
     2
  6
DASHED
 10
692.762695
 20
623.896973
 11
693.737732
 21
624.459900
  0
LINE
  8
LC-003-150-MLN-0
 62
     2
  6
DASHED
 10
692.262695
 20
604.459900
 11
692.262695
 21
611.459900
  0
LINE
  8
LC-003-150-MLN-0
 62
     2
  6
DASHED
 10
692.762695
 20
608.959900
 11
702.762695
 21
608.959900
  0
LINE
  8
LC-003-150-MLN-0
 62
     2
  6
DASHED
 10
543.737732
 20
637.759888
 11
547.762695
 21
640.083740
  0
LINE
  8
LC-003-150-MLN-0
 62
     2
  6
DASHED
 10
543.737732
 20
624.459900
 11
543.737732
 21
637.759888
  0
LINE
  8
LC-003-150-MLN-0
 62
     2
  6
DASHED
 10
692.762695
 20
623.896973
 11
702.762695
 21
623.896973
  0
LINE
  8
LC-003-150-MLN-0
 62
     2
  6
DASHED
 10
703.262695
 20
604.459900
 11
703.262695
 21
611.459900
  0
LINE
  8
LC-003-150-MLN-0
 62
     2
  6
DASHED
 10
542.762695
 20
630.459900
 11
542.762695
 21
623.896973
  0
LINE
  8
LC-003-150-MLN-0
 62
     2
  6
DASHED
 10
701.787720
 20
637.759888
 11
697.762695
 21
640.083740
  0
LINE
  8
LC-003-150-MLN-0
 62
     2
  6
DASHED
 10
693.737732
 20
637.759888
 11
697.762695
 21
640.083740
  0
LINE
  8
LC-003-150-MLN-0
 62
     2
  6
DASHED
 10
693.737732
 20
624.459900
 11
693.737732
 21
637.759888
  0
LINE
  8
LC-003-150-MLN-0
 62
     2
  6
DASHED
 10
692.762695
 20
630.459900
 11
692.762695
 21
623.896973
  0
LINE
  8
LC-003-150-MLN-0
 62
     2
  6
DASHED
 10
693.737732
 20
637.759888
 11
701.787720
 21
637.759888
  0
LINE
  8
LC-003-150-MLN-0
 62
     2
  6
DASHED
 10
693.737732
 20
624.459900
 11
693.737732
 21
608.959900
  0
LINE
  8
LC-003-150-MLN-0
 62
     2
  6
DASHED
 10
702.762695
 20
630.459900
 11
702.762695
 21
623.896973
  0
LINE
  8
LC-003-150-MLN-0
 62
     2
  6
DASHED
 10
701.787720
 20
624.459900
 11
701.787720
 21
608.959900
  0
LINE
  8
LC-003-150-MLN-0
 62
     2
  6
DASHED
 10
688.762695
 20
586.589905
 11
688.762695
 21
604.459900
  0
LINE
  8
LC-003-150-MLN-0
 62
     2
  6
DASHED
 10
706.762695
 20
586.589905
 11
706.762695
 21
604.459900
  0
LINE
  8
LC-003-150-MLN-0
 62
     2
  6
DASHED
 10
543.737732
 20
637.759888
 11
551.787720
 21
637.759888
  0
LINE
  8
LC-003-150-MLN-0
 62
     2
  6
DASHED
 10
543.737732
 20
624.459900
 11
543.737732
 21
608.959900
  0
LINE
  8
LC-003-150-MLN-0
 62
     2
  6
DASHED
 10
897.171997
 20
604.459900
 11
913.171997
 21
604.459900
  0
LINE
  8
LC-003-150-MLN-0
 62
     2
  6
DASHED
 10
552.762695
 20
630.459900
 11
552.762695
 21
623.896973
  0
LINE
  8
LC-003-150-MLN-0
 62
     2
  6
DASHED
 10
551.787720
 20
624.459900
 11
551.787720
 21
608.959900
  0
LINE
  8
LC-003-150-MLN-0
 62
     2
  6
DASHED
 10
538.762695
 20
586.589905
 11
538.762695
 21
604.459900
  0
LINE
  8
LC-003-150-MLN-0
 62
     2
  6
DASHED
 10
556.762695
 20
586.589905
 11
556.762695
 21
604.459900
  0
LINE
  8
LC-001-150-----0
 62
     2
  6
DASHDOT
 10
697.762817
 20
585.298950
 11
697.762817
 21
651.435303
  0
LINE
  8
LC-003-150-MLN-0
 62
     2
  6
DASHED
 10
900.171997
 20
630.459900
 11
910.171997
 21
630.459900
  0
LINE
  8
LC-003-150-MLN-0
 62
     2
  6
DASHED
 10
909.197021
 20
624.459900
 11
909.197021
 21
637.759888
  0
LINE
  8
LC-001-150-----0
 62
     2
  6
DASHDOT
 10
547.762817
 20
585.298950
 11
547.762817
 21
651.435303
  0
LINE
  8
LC-003-150-MLN-0
 62
     2
  6
DASHED
 10
747.171997
 20
604.459900
 11
763.171997
 21
604.459900
  0
LINE
  8
LC-003-150-MLN-0
 62
     2
  6
DASHED
 10
750.171997
 20
630.459900
 11
760.171997
 21
630.459900
  0
LINE
  8
LC-003-150-MLN-0
 62
     2
  6
DASHED
 10
759.197021
 20
624.459900
 11
759.197021
 21
637.759888
  0
LINE
  8
LC-003-150-MLN-0
 62
     2
  6
DASHED
 10
747.171997
 20
596.059875
 11
747.171997
 21
604.459900
  0
ARC
  8
LC-003-150-MLN-0
 62
     2
  6
DASHED
 10
748.772034
 20
596.059875
 40
1.600000
 50
180.000009
 51
269.999997
  0
LINE
  8
LC-003-150-MLN-0
 62
     2
  6
DASHED
 10
761.572021
 20
594.459900
 11
748.772034
 21
594.459900
  0
LINE
  8
LC-003-150-MLN-0
 62
     2
  6
DASHED
 10
763.171997
 20
596.059875
 11
763.171997
 21
604.459900
  0
ARC
  8
LC-003-150-MLN-0
 62
     2
  6
DASHED
 10
761.572021
 20
596.059875
 40
1.600000
 50
269.999997
 51
0.000000
  0
LINE
  8
LC-003-150-MLN-0
 62
     2
  6
DASHED
 10
760.171997
 20
623.896973
 11
759.197021
 21
624.459900
  0
LINE
  8
LC-003-150-MLN-0
 62
     2
  6
DASHED
 10
751.147034
 20
624.459900
 11
759.197021
 21
624.459900
  0
LINE
  8
LC-003-150-MLN-0
 62
     2
  6
DASHED
 10
750.171997
 20
623.896973
 11
751.147034
 21
624.459900
  0
LINE
  8
LC-003-150-MLN-0
 62
     2
  6
DASHED
 10
749.671997
 20
604.459900
 11
749.671997
 21
611.459900
  0
LINE
  8
LC-003-150-MLN-0
 62
     2
  6
DASHED
 10
897.171997
 20
596.059875
 11
897.171997
 21
604.459900
  0
LINE
  8
LC-003-150-MLN-0
 62
     2
  6
DASHED
 10
750.171997
 20
608.959900
 11
760.171997
 21
608.959900
  0
LINE
  8
LC-003-150-MLN-0
 62
     2
  6
DASHED
 10
750.171997
 20
623.896973
 11
760.171997
 21
623.896973
  0
LINE
  8
LC-003-150-MLN-0
 62
     2
  6
DASHED
 10
760.671997
 20
604.459900
 11
760.671997
 21
611.459900
  0
LINE
  8
LC-003-150-MLN-0
 62
     2
  6
DASHED
 10
759.197021
 20
637.759888
 11
755.171997
 21
640.083740
  0
LINE
  8
LC-003-150-MLN-0
 62
     2
  6
DASHED
 10
751.147034
 20
637.759888
 11
755.171997
 21
640.083740
  0
LINE
  8
LC-003-150-MLN-0
 62
     2
  6
DASHED
 10
751.147034
 20
624.459900
 11
751.147034
 21
637.759888
  0
LINE
  8
LC-003-150-MLN-0
 62
     2
  6
DASHED
 10
750.171997
 20
630.459900
 11
750.171997
 21
623.896973
  0
LINE
  8
LC-003-150-MLN-0
 62
     2
  6
DASHED
 10
751.147034
 20
637.759888
 11
759.197021
 21
637.759888
  0
LINE
  8
LC-003-150-MLN-0
 62
     2
  6
DASHED
 10
751.147034
 20
624.459900
 11
751.147034
 21
608.959900
  0
LINE
  8
LC-003-150-MLN-0
 62
     2
  6
DASHED
 10
760.171997
 20
630.459900
 11
760.171997
 21
623.896973
  0
LINE
  8
LC-003-150-MLN-0
 62
     2
  6
DASHED
 10
759.197021
 20
624.459900
 11
759.197021
 21
608.959900
  0
LINE
  8
LC-003-150-MLN-0
 62
     2
  6
DASHED
 10
746.171997
 20
586.589905
 11
746.171997
 21
604.459900
  0
LINE
  8
LC-003-150-MLN-0
 62
     2
  6
DASHED
 10
764.171997
 20
586.589905
 11
764.171997
 21
604.459900
  0
LINE
  8
LC-001-150-----0
 62
     2
  6
DASHDOT
 10
755.172180
 20
585.298950
 11
755.172180
 21
651.435303
  0
ARC
  8
LC-003-150-MLN-0
 62
     2
  6
DASHED
 10
898.772034
 20
596.059875
 40
1.600000
 50
180.000009
 51
269.999997
  0
LINE
  8
LC-003-150-MLN-0
 62
     2
  6
DASHED
 10
911.572021
 20
594.459900
 11
898.772034
 21
594.459900
  0
LINE
  8
LC-003-150-MLN-0
 62
     2
  6
DASHED
 10
913.171997
 20
596.059875
 11
913.171997
 21
604.459900
  0
ARC
  8
LC-003-150-MLN-0
 62
     2
  6
DASHED
 10
911.572021
 20
596.059875
 40
1.600000
 50
269.999997
 51
0.000000
  0
LINE
  8
LC-003-150-MLN-0
 62
     2
  6
DASHED
 10
910.171997
 20
623.896973
 11
909.197021
 21
624.459900
  0
LINE
  8
LC-003-150-MLN-0
 62
     2
  6
DASHED
 10
901.147034
 20
624.459900
 11
909.197021
 21
624.459900
  0
LINE
  8
LC-003-150-MLN-0
 62
     2
  6
DASHED
 10
900.171997
 20
623.896973
 11
901.147034
 21
624.459900
  0
LINE
  8
LC-003-150-MLN-0
 62
     2
  6
DASHED
 10
899.671997
 20
604.459900
 11
899.671997
 21
611.459900
  0
LINE
  8
LC-003-150-MLN-0
 62
     2
  6
DASHED
 10
900.171997
 20
608.959900
 11
910.171997
 21
608.959900
  0
LINE
  8
LC-003-150-MLN-0
 62
     2
  6
DASHED
 10
900.171997
 20
623.896973
 11
910.171997
 21
623.896973
  0
LINE
  8
LC-003-150-MLN-0
 62
     2
  6
DASHED
 10
910.671997
 20
604.459900
 11
910.671997
 21
611.459900
  0
LINE
  8
LC-003-150-MLN-0
 62
     2
  6
DASHED
 10
909.197021
 20
637.759888
 11
905.171997
 21
640.083740
  0
LINE
  8
LC-003-150-MLN-0
 62
     2
  6
DASHED
 10
901.147034
 20
637.759888
 11
905.171997
 21
640.083740
  0
LINE
  8
LC-003-150-MLN-0
 62
     2
  6
DASHED
 10
901.147034
 20
624.459900
 11
901.147034
 21
637.759888
  0
LINE
  8
LC-003-150-MLN-0
 62
     2
  6
DASHED
 10
900.171997
 20
630.459900
 11
900.171997
 21
623.896973
  0
LINE
  8
LC-003-150-MLN-0
 62
     2
  6
DASHED
 10
901.147034
 20
637.759888
 11
909.197021
 21
637.759888
  0
LINE
  8
LC-003-150-MLN-0
 62
     2
  6
DASHED
 10
901.147034
 20
624.459900
 11
901.147034
 21
608.959900
  0
LINE
  8
LC-003-150-MLN-0
 62
     2
  6
DASHED
 10
910.171997
 20
630.459900
 11
910.171997
 21
623.896973
  0
LINE
  8
LC-003-150-MLN-0
 62
     2
  6
DASHED
 10
909.197021
 20
624.459900
 11
909.197021
 21
608.959900
  0
LINE
  8
LC-003-150-MLN-0
 62
     2
  6
DASHED
 10
896.171997
 20
586.589905
 11
896.171997
 21
604.459900
  0
LINE
  8
LC-003-150-MLN-0
 62
     2
  6
DASHED
 10
914.171997
 20
586.589905
 11
914.171997
 21
604.459900
  0
LINE
  8
LC-001-150-----0
 62
     2
  6
DASHDOT
 10
905.172180
 20
585.298950
 11
905.172180
 21
651.435303
  0
LINE
  8
LC-003-002-----0
 62
     1
  6
CONTINUOUS
 10
917.172180
 20
611.459900
 11
917.172180
 21
586.589905
  0
ENDSEC
  0
EOF
