  0
SECTION
  2
HEADER
  9
$LIMMIN
 10
428.463409
 20
397.425385
  9
$LIMMAX
 10
928.139709
 20
485.020844
  9
$EXTMIN
 10
428.463409
 20
397.425385
  9
$EXTMAX
 10
928.139709
 20
485.020844
  0
ENDSEC
  0
SECTION
  2
TABLES
  0
TABLE
  2
LTYPE
 70
     3
  0
LTYPE
  2
CONTINUOUS
 70
    64
  3
Ausgezogene Linie
 72
    65
 73
     0
 40
0.0
  0
LTYPE
  2
DASHED
 70
    64
  3
__ __ __ __ __ __ __ __ __ __ __ __ __ __ __
 72
    65
 73
     2
 40
0.75
 49
0.5
 49
-0.25
  0
LTYPE
  2
DASHDOT
 70
    64
  3
__ . __ . __ . __ . __ . __ . __ . __ . __ . __
 72
    65
 73
     4
 40
1.0
 49
0.5
 49
-0.25
 49
0.0
 49
-0.25
  0
ENDTAB
  0
TABLE
  2
LAYER
 70
     5
  0
LAYER
  2
LC-INFO-1-1-MM-A0-0
 70
    64
 62
     7
  6
CONTINUOUS
  0
LAYER
  2
LC-003-002-----0
 70
    64
 62
     7
  6
CONTINUOUS
  0
LAYER
  2
LC-001-150-----0
 70
    64
 62
     7
  6
CONTINUOUS
  0
LAYER
  2
LC-003-150-MLN-0
 70
    64
 62
     7
  6
CONTINUOUS
  0
LAYER
  2
LC-004-160-----0
 70
    64
 62
     7
  6
CONTINUOUS
  0
ENDTAB
  0
TABLE
  2
STYLE
 70
     1
  0
STYLE
  2
TXT8
 70
    64
 40
0.0
 41
1.0
 50
0.0
 71
     0
 42
3.500000
  3
TXT8
  4

  0
ENDTAB
  0
ENDSEC
  0
SECTION
  2
BLOCKS
  0
ENDSEC
  0
SECTION
  2
ENTITIES
  0
LINE
  8
LC-004-160-----0
 62
     2
  6
CONTINUOUS
 10
733.730896
 20
480.259064
 11
733.632874
 21
479.928833
  0
LINE
  8
LC-004-160-----0
 62
     2
  6
CONTINUOUS
 10
733.632874
 20
479.928833
 11
733.360291
 21
478.996948
  0
LINE
  8
LC-004-160-----0
 62
     2
  6
CONTINUOUS
 10
733.360291
 20
478.996948
 11
732.945496
 21
477.551758
  0
LINE
  8
LC-004-160-----0
 62
     2
  6
CONTINUOUS
 10
732.945496
 20
477.551758
 11
731.818176
 21
473.474518
  0
LINE
  8
LC-004-160-----0
 62
     2
  6
CONTINUOUS
 10
731.818176
 20
473.474518
 11
730.509094
 21
468.403473
  0
LINE
  8
LC-004-160-----0
 62
     2
  6
CONTINUOUS
 10
730.509094
 20
468.403473
 11
729.276550
 21
463.044922
  0
LINE
  8
LC-004-160-----0
 62
     2
  6
CONTINUOUS
 10
729.276550
 20
463.044922
 11
728.769592
 21
460.478546
  0
LINE
  8
LC-004-160-----0
 62
     2
  6
CONTINUOUS
 10
728.769592
 20
460.478546
 11
728.341858
 21
457.862946
  0
LINE
  8
LC-004-160-----0
 62
     2
  6
CONTINUOUS
 10
728.341858
 20
457.862946
 11
728.058289
 21
455.439819
  0
LINE
  8
LC-004-160-----0
 62
     2
  6
CONTINUOUS
 10
728.058289
 20
455.439819
 11
727.923767
 21
453.169525
  0
LINE
  8
LC-004-160-----0
 62
     2
  6
CONTINUOUS
 10
727.923767
 20
453.169525
 11
727.942932
 21
451.012360
  0
LINE
  8
LC-004-160-----0
 62
     2
  6
CONTINUOUS
 10
727.942932
 20
451.012360
 11
728.120667
 21
448.928619
  0
LINE
  8
LC-004-160-----0
 62
     2
  6
CONTINUOUS
 10
728.120667
 20
448.928619
 11
728.461609
 21
446.878662
  0
LINE
  8
LC-004-160-----0
 62
     2
  6
CONTINUOUS
 10
728.461609
 20
446.878662
 11
728.970520
 21
444.822784
  0
LINE
  8
LC-004-160-----0
 62
     2
  6
CONTINUOUS
 10
728.970520
 20
444.822784
 11
728.970520
 21
444.822784
  0
LINE
  8
LC-004-160-----0
 62
     2
  6
CONTINUOUS
 10
728.970520
 20
444.822784
 11
729.589905
 21
442.863342
  0
LINE
  8
LC-004-160-----0
 62
     2
  6
CONTINUOUS
 10
729.589905
 20
442.863342
 11
730.281738
 21
440.869904
  0
LINE
  8
LC-004-160-----0
 62
     2
  6
CONTINUOUS
 10
730.281738
 20
440.869904
 11
730.967163
 21
438.848419
  0
LINE
  8
LC-004-160-----0
 62
     2
  6
CONTINUOUS
 10
730.967163
 20
438.848419
 11
731.567078
 21
436.804901
  0
LINE
  8
LC-004-160-----0
 62
     2
  6
CONTINUOUS
 10
731.567078
 20
436.804901
 11
732.002563
 21
434.745270
  0
LINE
  8
LC-004-160-----0
 62
     2
  6
CONTINUOUS
 10
732.002563
 20
434.745270
 11
732.194580
 21
432.675537
  0
LINE
  8
LC-004-160-----0
 62
     2
  6
CONTINUOUS
 10
732.194580
 20
432.675537
 11
732.119385
 21
430.610931
  0
LINE
  8
LC-004-160-----0
 62
     2
  6
CONTINUOUS
 10
732.119385
 20
430.610931
 11
731.968384
 21
428.532654
  0
LINE
  8
LC-004-160-----0
 62
     2
  6
CONTINUOUS
 10
731.968384
 20
428.532654
 11
731.984497
 21
426.431061
  0
LINE
  8
LC-004-160-----0
 62
     2
  6
CONTINUOUS
 10
731.984497
 20
426.431061
 11
731.984497
 21
426.431061
  0
LINE
  8
LC-004-160-----0
 62
     2
  6
CONTINUOUS
 10
731.984497
 20
426.431061
 11
732.386353
 21
423.836090
  0
LINE
  8
LC-004-160-----0
 62
     2
  6
CONTINUOUS
 10
732.386353
 20
423.836090
 11
732.633545
 21
421.359070
  0
LINE
  8
LC-004-160-----0
 62
     2
  6
CONTINUOUS
 10
732.633545
 20
421.359070
 11
732.172791
 21
419.147308
  0
LINE
  8
LC-004-160-----0
 62
     2
  6
CONTINUOUS
 10
732.172791
 20
419.147308
 11
731.235657
 21
416.977448
  0
LINE
  8
LC-004-160-----0
 62
     2
  6
CONTINUOUS
 10
731.235657
 20
416.977448
 11
730.232422
 21
414.618439
  0
LINE
  8
LC-004-160-----0
 62
     2
  6
CONTINUOUS
 10
730.232422
 20
414.618439
 11
729.573303
 21
411.839294
  0
LINE
  8
LC-004-160-----0
 62
     2
  6
CONTINUOUS
 10
729.573303
 20
411.839294
 11
729.508179
 21
409.198547
  0
LINE
  8
LC-004-160-----0
 62
     2
  6
CONTINUOUS
 10
729.508179
 20
409.198547
 11
729.763794
 21
406.499634
  0
LINE
  8
LC-004-160-----0
 62
     2
  6
CONTINUOUS
 10
729.763794
 20
406.499634
 11
730.164307
 21
404.113007
  0
LINE
  8
LC-004-160-----0
 62
     2
  6
CONTINUOUS
 10
730.164307
 20
404.113007
 11
730.533569
 21
402.409302
  0
LINE
  8
LC-004-160-----0
 62
     2
  6
CONTINUOUS
 10
730.533569
 20
402.409302
 11
730.695801
 21
401.759064
  0
LINE
  8
LC-004-160-----0
 62
     2
  6
CONTINUOUS
 10
727.541443
 20
480.259064
 11
727.443420
 21
479.928833
  0
LINE
  8
LC-004-160-----0
 62
     2
  6
CONTINUOUS
 10
727.443420
 20
479.928833
 11
727.170837
 21
478.996948
  0
LINE
  8
LC-004-160-----0
 62
     2
  6
CONTINUOUS
 10
727.170837
 20
478.996948
 11
726.756042
 21
477.551758
  0
LINE
  8
LC-004-160-----0
 62
     2
  6
CONTINUOUS
 10
726.756042
 20
477.551758
 11
725.628723
 21
473.474518
  0
LINE
  8
LC-004-160-----0
 62
     2
  6
CONTINUOUS
 10
725.628723
 20
473.474518
 11
724.319641
 21
468.403473
  0
LINE
  8
LC-004-160-----0
 62
     2
  6
CONTINUOUS
 10
724.319641
 20
468.403473
 11
723.087097
 21
463.044922
  0
LINE
  8
LC-004-160-----0
 62
     2
  6
CONTINUOUS
 10
723.087097
 20
463.044922
 11
722.580139
 21
460.478546
  0
LINE
  8
LC-004-160-----0
 62
     2
  6
CONTINUOUS
 10
722.580139
 20
460.478546
 11
722.152405
 21
457.862946
  0
LINE
  8
LC-004-160-----0
 62
     2
  6
CONTINUOUS
 10
722.152405
 20
457.862946
 11
721.868896
 21
455.439819
  0
LINE
  8
LC-004-160-----0
 62
     2
  6
CONTINUOUS
 10
721.868896
 20
455.439819
 11
721.734314
 21
453.169525
  0
LINE
  8
LC-004-160-----0
 62
     2
  6
CONTINUOUS
 10
721.734314
 20
453.169525
 11
721.753540
 21
451.012360
  0
LINE
  8
LC-004-160-----0
 62
     2
  6
CONTINUOUS
 10
721.753540
 20
451.012360
 11
721.931213
 21
448.928619
  0
LINE
  8
LC-004-160-----0
 62
     2
  6
CONTINUOUS
 10
721.931213
 20
448.928619
 11
722.272156
 21
446.878662
  0
LINE
  8
LC-004-160-----0
 62
     2
  6
CONTINUOUS
 10
722.272156
 20
446.878662
 11
722.781067
 21
444.822784
  0
LINE
  8
LC-004-160-----0
 62
     2
  6
CONTINUOUS
 10
722.781067
 20
444.822784
 11
722.781067
 21
444.822784
  0
LINE
  8
LC-004-160-----0
 62
     2
  6
CONTINUOUS
 10
722.781067
 20
444.822784
 11
723.400452
 21
442.863342
  0
LINE
  8
LC-004-160-----0
 62
     2
  6
CONTINUOUS
 10
723.400452
 20
442.863342
 11
724.092285
 21
440.869904
  0
LINE
  8
LC-004-160-----0
 62
     2
  6
CONTINUOUS
 10
724.092285
 20
440.869904
 11
724.777710
 21
438.848419
  0
LINE
  8
LC-004-160-----0
 62
     2
  6
CONTINUOUS
 10
724.777710
 20
438.848419
 11
725.377625
 21
436.804901
  0
LINE
  8
LC-004-160-----0
 62
     2
  6
CONTINUOUS
 10
725.377625
 20
436.804901
 11
725.813110
 21
434.745270
  0
LINE
  8
LC-004-160-----0
 62
     2
  6
CONTINUOUS
 10
725.813110
 20
434.745270
 11
726.005127
 21
432.675537
  0
LINE
  8
LC-004-160-----0
 62
     2
  6
CONTINUOUS
 10
726.005127
 20
432.675537
 11
725.929932
 21
430.610931
  0
LINE
  8
LC-004-160-----0
 62
     2
  6
CONTINUOUS
 10
725.929932
 20
430.610931
 11
725.778931
 21
428.532654
  0
LINE
  8
LC-004-160-----0
 62
     2
  6
CONTINUOUS
 10
725.778931
 20
428.532654
 11
725.795044
 21
426.431061
  0
LINE
  8
LC-004-160-----0
 62
     2
  6
CONTINUOUS
 10
725.795044
 20
426.431061
 11
725.795044
 21
426.431061
  0
LINE
  8
LC-004-160-----0
 62
     2
  6
CONTINUOUS
 10
725.795044
 20
426.431061
 11
726.196899
 21
423.836090
  0
LINE
  8
LC-004-160-----0
 62
     2
  6
CONTINUOUS
 10
726.196899
 20
423.836090
 11
726.444092
 21
421.359070
  0
LINE
  8
LC-004-160-----0
 62
     2
  6
CONTINUOUS
 10
726.444092
 20
421.359070
 11
725.983337
 21
419.147308
  0
LINE
  8
LC-004-160-----0
 62
     2
  6
CONTINUOUS
 10
725.983337
 20
419.147308
 11
725.046204
 21
416.977448
  0
LINE
  8
LC-004-160-----0
 62
     2
  6
CONTINUOUS
 10
725.046204
 20
416.977448
 11
724.042969
 21
414.618439
  0
LINE
  8
LC-004-160-----0
 62
     2
  6
CONTINUOUS
 10
724.042969
 20
414.618439
 11
723.383911
 21
411.839294
  0
LINE
  8
LC-004-160-----0
 62
     2
  6
CONTINUOUS
 10
723.383911
 20
411.839294
 11
723.318726
 21
409.198547
  0
LINE
  8
LC-004-160-----0
 62
     2
  6
CONTINUOUS
 10
723.318726
 20
409.198547
 11
723.574402
 21
406.499634
  0
LINE
  8
LC-004-160-----0
 62
     2
  6
CONTINUOUS
 10
723.574402
 20
406.499634
 11
723.974854
 21
404.113007
  0
LINE
  8
LC-004-160-----0
 62
     2
  6
CONTINUOUS
 10
723.974854
 20
404.113007
 11
724.344177
 21
402.409302
  0
LINE
  8
LC-004-160-----0
 62
     2
  6
CONTINUOUS
 10
724.344177
 20
402.409302
 11
724.506348
 21
401.759064
  0
LINE
  8
LC-003-002-----0
 62
     1
  6
CONTINUOUS
 10
442.178772
 20
401.759064
 11
474.178772
 21
401.759064
  0
LINE
  8
LC-003-002-----0
 62
     1
  6
CONTINUOUS
 10
474.178772
 20
401.759064
 11
474.178772
 21
421.359070
  0
LINE
  8
LC-003-002-----0
 62
     1
  6
CONTINUOUS
 10
535.762817
 20
401.759064
 11
724.506348
 21
401.759064
  0
LINE
  8
LC-003-002-----0
 62
     1
  6
CONTINUOUS
 10
923.172180
 20
401.759064
 11
730.695801
 21
401.759064
  0
LINE
  8
LC-003-002-----0
 62
     1
  6
CONTINUOUS
 10
535.762817
 20
478.259064
 11
535.762817
 21
432.675537
  0
LINE
  8
LC-003-002-----0
 62
     1
  6
CONTINUOUS
 10
923.172180
 20
478.259064
 11
923.172180
 21
432.675537
  0
LINE
  8
LC-003-002-----0
 62
     1
  6
CONTINUOUS
 10
442.178772
 20
401.759064
 11
442.178772
 21
421.359070
  0
LINE
  8
LC-001-150-----0
 62
     2
  6
DASHDOT
 10
458.178772
 20
397.425385
 11
458.178772
 21
485.020844
  0
LINE
  8
LC-003-002-----0
 62
     1
  6
CONTINUOUS
 10
468.901825
 20
432.675537
 11
474.178772
 21
421.359070
  0
LINE
  8
LC-001-150-----0
 62
     2
  6
DASHDOT
 10
428.463409
 20
455.259064
 11
486.957428
 21
455.259064
  0
CIRCLE
  8
LC-003-002-----0
 62
     1
  6
CONTINUOUS
 10
458.178772
 20
455.259064
 40
25.000000
  0
CIRCLE
  8
LC-003-002-----0
 62
     1
  6
CONTINUOUS
 10
458.178772
 20
455.259064
 40
23.000000
  0
LINE
  8
LC-003-002-----0
 62
     1
  6
CONTINUOUS
 10
447.455719
 20
432.675537
 11
442.178772
 21
421.359070
  0
LINE
  8
LC-003-002-----0
 62
     1
  6
CONTINUOUS
 10
535.762817
 20
421.359070
 11
726.444092
 21
421.359070
  0
LINE
  8
LC-003-002-----0
 62
     1
  6
CONTINUOUS
 10
535.762817
 20
432.675537
 11
726.005127
 21
432.675537
  0
LINE
  8
LC-001-150-----0
 62
     2
  6
DASHDOT
 10
530.297180
 20
455.259064
 11
928.139709
 21
455.259064
  0
LINE
  8
LC-003-002-----0
 62
     1
  6
CONTINUOUS
 10
727.541443
 20
480.259064
 11
537.762817
 21
480.259064
  0
LINE
  8
LC-003-002-----0
 62
     1
  6
CONTINUOUS
 10
732.631653
 20
421.359070
 11
923.172180
 21
421.359070
  0
LINE
  8
LC-003-002-----0
 62
     1
  6
CONTINUOUS
 10
732.206177
 20
432.675537
 11
923.172180
 21
432.675537
  0
LINE
  8
LC-003-002-----0
 62
     1
  6
CONTINUOUS
 10
732.808899
 20
480.259064
 11
921.172180
 21
480.259064
  0
LINE
  8
LC-003-002-----0
 62
     1
  6
CONTINUOUS
 10
537.762817
 20
480.259064
 11
535.762817
 21
478.259064
  0
LINE
  8
LC-003-002-----0
 62
     1
  6
CONTINUOUS
 10
921.172180
 20
480.259064
 11
923.172180
 21
478.259064
  0
LINE
  8
LC-003-002-----0
 62
     1
  6
CONTINUOUS
 10
921.172180
 20
480.259064
 11
921.172180
 21
432.675537
  0
LINE
  8
LC-003-002-----0
 62
     1
  6
CONTINUOUS
 10
537.762817
 20
480.259064
 11
537.762817
 21
432.675537
  0
LINE
  8
LC-003-150-MLN-0
 62
     2
  6
DASHED
 10
449.178619
 20
422.675537
 11
467.178619
 21
422.675537
  0
LINE
  8
LC-003-150-MLN-0
 62
     2
  6
DASHED
 10
541.762695
 20
422.675537
 11
559.762695
 21
422.675537
  0
LINE
  8
LC-003-150-MLN-0
 62
     2
  6
DASHED
 10
452.178619
 20
447.018799
 11
452.178619
 21
422.675537
  0
LINE
  8
LC-003-150-MLN-0
 62
     2
  6
DASHED
 10
464.178619
 20
447.018799
 11
464.178619
 21
422.675537
  0
LINE
  8
LC-003-150-MLN-0
 62
     2
  6
DASHED
 10
544.762695
 20
447.018799
 11
544.762695
 21
422.675537
  0
LINE
  8
LC-003-150-MLN-0
 62
     2
  6
DASHED
 10
556.762695
 20
447.018799
 11
556.762695
 21
422.675537
  0
LINE
  8
LC-003-150-MLN-0
 62
     2
  6
DASHED
 10
544.762695
 20
456.675537
 11
556.762695
 21
456.675537
  0
LINE
  8
LC-003-150-MLN-0
 62
     2
  6
DASHED
 10
555.625183
 20
447.675537
 11
555.625183
 21
464.975525
  0
LINE
  8
LC-003-150-MLN-0
 62
     2
  6
DASHED
 10
541.762695
 20
412.475525
 11
541.762695
 21
422.675537
  0
ARC
  8
LC-003-150-MLN-0
 62
     2
  6
DASHED
 10
543.562683
 20
412.475525
 40
1.800000
 50
180.000009
 51
269.999997
  0
LINE
  8
LC-003-150-MLN-0
 62
     2
  6
DASHED
 10
557.962708
 20
410.675537
 11
543.562683
 21
410.675537
  0
LINE
  8
LC-003-150-MLN-0
 62
     2
  6
DASHED
 10
559.762695
 20
412.475525
 11
559.762695
 21
422.675537
  0
ARC
  8
LC-003-150-MLN-0
 62
     2
  6
DASHED
 10
557.962708
 20
412.475525
 40
1.800000
 50
269.999997
 51
0.000000
  0
LINE
  8
LC-003-150-MLN-0
 62
     2
  6
DASHED
 10
556.762695
 20
447.018799
 11
555.625183
 21
447.675537
  0
LINE
  8
LC-003-150-MLN-0
 62
     2
  6
DASHED
 10
545.900208
 20
447.675537
 11
555.625183
 21
447.675537
  0
LINE
  8
LC-003-150-MLN-0
 62
     2
  6
DASHED
 10
544.762695
 20
447.018799
 11
545.900208
 21
447.675537
  0
LINE
  8
LC-003-150-MLN-0
 62
     2
  6
DASHED
 10
544.012695
 20
422.675537
 11
544.012695
 21
432.675537
  0
LINE
  8
LC-003-150-MLN-0
 62
     2
  6
DASHED
 10
544.762695
 20
427.925537
 11
556.762695
 21
427.925537
  0
LINE
  8
LC-003-150-MLN-0
 62
     2
  6
DASHED
 10
544.762695
 20
447.018799
 11
556.762695
 21
447.018799
  0
LINE
  8
LC-003-150-MLN-0
 62
     2
  6
DASHED
 10
557.512695
 20
422.675537
 11
557.512695
 21
432.675537
  0
LINE
  8
LC-003-150-MLN-0
 62
     2
  6
DASHED
 10
555.625183
 20
464.975525
 11
550.762695
 21
467.782898
  0
LINE
  8
LC-003-150-MLN-0
 62
     2
  6
DASHED
 10
545.900208
 20
464.975525
 11
550.762695
 21
467.782898
  0
LINE
  8
LC-003-150-MLN-0
 62
     2
  6
DASHED
 10
545.900208
 20
447.675537
 11
545.900208
 21
464.975525
  0
LINE
  8
LC-003-150-MLN-0
 62
     2
  6
DASHED
 10
545.900208
 20
464.975525
 11
555.625183
 21
464.975525
  0
LINE
  8
LC-003-150-MLN-0
 62
     2
  6
DASHED
 10
545.900208
 20
447.675537
 11
545.900208
 21
427.925537
  0
LINE
  8
LC-003-150-MLN-0
 62
     2
  6
DASHED
 10
555.625183
 20
447.675537
 11
555.625183
 21
427.925537
  0
LINE
  8
LC-003-150-MLN-0
 62
     2
  6
DASHED
 10
540.762695
 20
401.759064
 11
540.762695
 21
422.675537
  0
LINE
  8
LC-003-150-MLN-0
 62
     2
  6
DASHED
 10
560.762695
 20
401.759064
 11
560.762695
 21
422.675537
  0
LINE
  8
LC-001-150-----0
 62
     2
  6
DASHDOT
 10
550.762817
 20
397.425385
 11
550.762817
 21
485.020844
  0
LINE
  8
LC-003-150-MLN-0
 62
     2
  6
DASHED
 10
691.762695
 20
422.675537
 11
709.762695
 21
422.675537
  0
LINE
  8
LC-003-150-MLN-0
 62
     2
  6
DASHED
 10
452.178619
 20
456.675537
 11
464.178619
 21
456.675537
  0
LINE
  8
LC-003-150-MLN-0
 62
     2
  6
DASHED
 10
463.041138
 20
447.675537
 11
463.041138
 21
464.975525
  0
LINE
  8
LC-003-150-MLN-0
 62
     2
  6
DASHED
 10
449.178619
 20
412.475525
 11
449.178619
 21
422.675537
  0
ARC
  8
LC-003-150-MLN-0
 62
     2
  6
DASHED
 10
450.978638
 20
412.475525
 40
1.800000
 50
180.000009
 51
269.999997
  0
LINE
  8
LC-003-150-MLN-0
 62
     2
  6
DASHED
 10
465.378632
 20
410.675537
 11
450.978638
 21
410.675537
  0
LINE
  8
LC-003-150-MLN-0
 62
     2
  6
DASHED
 10
467.178619
 20
412.475525
 11
467.178619
 21
422.675537
  0
ARC
  8
LC-003-150-MLN-0
 62
     2
  6
DASHED
 10
465.378632
 20
412.475525
 40
1.800000
 50
269.999997
 51
0.000000
  0
LINE
  8
LC-003-150-MLN-0
 62
     2
  6
DASHED
 10
464.178619
 20
447.018799
 11
463.041138
 21
447.675537
  0
LINE
  8
LC-003-150-MLN-0
 62
     2
  6
DASHED
 10
453.316132
 20
447.675537
 11
463.041138
 21
447.675537
  0
LINE
  8
LC-003-150-MLN-0
 62
     2
  6
DASHED
 10
452.178619
 20
447.018799
 11
453.316132
 21
447.675537
  0
LINE
  8
LC-003-150-MLN-0
 62
     2
  6
DASHED
 10
451.428619
 20
422.675537
 11
451.428619
 21
431.187592
  0
LINE
  8
LC-003-150-MLN-0
 62
     2
  6
DASHED
 10
452.178619
 20
427.925537
 11
464.178619
 21
427.925537
  0
LINE
  8
LC-003-150-MLN-0
 62
     2
  6
DASHED
 10
452.178619
 20
447.018799
 11
464.178619
 21
447.018799
  0
LINE
  8
LC-003-150-MLN-0
 62
     2
  6
DASHED
 10
464.928619
 20
422.675537
 11
464.928619
 21
431.187531
  0
LINE
  8
LC-003-150-MLN-0
 62
     2
  6
DASHED
 10
463.041138
 20
464.975525
 11
458.178619
 21
467.782898
  0
LINE
  8
LC-003-150-MLN-0
 62
     2
  6
DASHED
 10
453.316132
 20
464.975525
 11
458.178619
 21
467.782898
  0
LINE
  8
LC-003-150-MLN-0
 62
     2
  6
DASHED
 10
453.316132
 20
447.675537
 11
453.316132
 21
464.975525
  0
LINE
  8
LC-003-150-MLN-0
 62
     2
  6
DASHED
 10
694.762695
 20
447.018799
 11
694.762695
 21
422.675537
  0
LINE
  8
LC-003-150-MLN-0
 62
     2
  6
DASHED
 10
453.316132
 20
464.975525
 11
463.041138
 21
464.975525
  0
LINE
  8
LC-003-150-MLN-0
 62
     2
  6
DASHED
 10
706.762695
 20
447.018799
 11
706.762695
 21
422.675537
  0
LINE
  8
LC-003-150-MLN-0
 62
     2
  6
DASHED
 10
453.316132
 20
447.675537
 11
453.316132
 21
427.925537
  0
LINE
  8
LC-003-150-MLN-0
 62
     2
  6
DASHED
 10
694.762695
 20
456.675537
 11
706.762695
 21
456.675537
  0
LINE
  8
LC-003-150-MLN-0
 62
     2
  6
DASHED
 10
463.041138
 20
447.675537
 11
463.041138
 21
427.925537
  0
LINE
  8
LC-003-150-MLN-0
 62
     2
  6
DASHED
 10
448.178619
 20
401.759064
 11
448.178619
 21
422.675537
  0
LINE
  8
LC-003-150-MLN-0
 62
     2
  6
DASHED
 10
468.178619
 20
401.759064
 11
468.178619
 21
422.675537
  0
LINE
  8
LC-003-150-MLN-0
 62
     2
  6
DASHED
 10
705.625183
 20
447.675537
 11
705.625183
 21
464.975525
  0
LINE
  8
LC-003-150-MLN-0
 62
     2
  6
DASHED
 10
691.762695
 20
412.475525
 11
691.762695
 21
422.675537
  0
ARC
  8
LC-003-150-MLN-0
 62
     2
  6
DASHED
 10
693.562683
 20
412.475525
 40
1.800000
 50
180.000009
 51
269.999997
  0
LINE
  8
LC-003-150-MLN-0
 62
     2
  6
DASHED
 10
707.962708
 20
410.675537
 11
693.562683
 21
410.675537
  0
LINE
  8
LC-003-150-MLN-0
 62
     2
  6
DASHED
 10
709.762695
 20
412.475525
 11
709.762695
 21
422.675537
  0
ARC
  8
LC-003-150-MLN-0
 62
     2
  6
DASHED
 10
707.962708
 20
412.475525
 40
1.800000
 50
269.999997
 51
0.000000
  0
LINE
  8
LC-003-150-MLN-0
 62
     2
  6
DASHED
 10
706.762695
 20
447.018799
 11
705.625183
 21
447.675537
  0
LINE
  8
LC-003-150-MLN-0
 62
     2
  6
DASHED
 10
695.900208
 20
447.675537
 11
705.625183
 21
447.675537
  0
LINE
  8
LC-003-150-MLN-0
 62
     2
  6
DASHED
 10
694.762695
 20
447.018799
 11
695.900208
 21
447.675537
  0
LINE
  8
LC-003-150-MLN-0
 62
     2
  6
DASHED
 10
694.012695
 20
422.675537
 11
694.012695
 21
432.675537
  0
LINE
  8
LC-003-150-MLN-0
 62
     2
  6
DASHED
 10
694.762695
 20
427.925537
 11
706.762695
 21
427.925537
  0
LINE
  8
LC-003-150-MLN-0
 62
     2
  6
DASHED
 10
694.762695
 20
447.018799
 11
706.762695
 21
447.018799
  0
LINE
  8
LC-003-150-MLN-0
 62
     2
  6
DASHED
 10
707.512695
 20
422.675537
 11
707.512695
 21
432.675537
  0
LINE
  8
LC-003-150-MLN-0
 62
     2
  6
DASHED
 10
705.625183
 20
464.975525
 11
700.762695
 21
467.782898
  0
LINE
  8
LC-003-150-MLN-0
 62
     2
  6
DASHED
 10
695.900208
 20
464.975525
 11
700.762695
 21
467.782898
  0
LINE
  8
LC-003-150-MLN-0
 62
     2
  6
DASHED
 10
695.900208
 20
447.675537
 11
695.900208
 21
464.975525
  0
LINE
  8
LC-003-150-MLN-0
 62
     2
  6
DASHED
 10
695.900208
 20
464.975525
 11
705.625183
 21
464.975525
  0
LINE
  8
LC-003-150-MLN-0
 62
     2
  6
DASHED
 10
695.900208
 20
447.675537
 11
695.900208
 21
427.925537
  0
LINE
  8
LC-003-150-MLN-0
 62
     2
  6
DASHED
 10
705.625183
 20
447.675537
 11
705.625183
 21
427.925537
  0
LINE
  8
LC-003-150-MLN-0
 62
     2
  6
DASHED
 10
690.762695
 20
401.759064
 11
690.762695
 21
422.675537
  0
LINE
  8
LC-003-150-MLN-0
 62
     2
  6
DASHED
 10
710.762695
 20
401.759064
 11
710.762695
 21
422.675537
  0
LINE
  8
LC-001-150-----0
 62
     2
  6
DASHDOT
 10
700.762817
 20
397.425385
 11
700.762817
 21
485.020844
  0
LINE
  8
LC-003-150-MLN-0
 62
     2
  6
DASHED
 10
749.171997
 20
422.675537
 11
767.171997
 21
422.675537
  0
LINE
  8
LC-003-150-MLN-0
 62
     2
  6
DASHED
 10
752.171997
 20
447.018799
 11
752.171997
 21
422.675537
  0
LINE
  8
LC-003-150-MLN-0
 62
     2
  6
DASHED
 10
764.171997
 20
447.018799
 11
764.171997
 21
422.675537
  0
LINE
  8
LC-003-150-MLN-0
 62
     2
  6
DASHED
 10
752.171997
 20
456.675537
 11
764.171997
 21
456.675537
  0
LINE
  8
LC-003-150-MLN-0
 62
     2
  6
DASHED
 10
763.034485
 20
447.675537
 11
763.034485
 21
464.975525
  0
LINE
  8
LC-003-150-MLN-0
 62
     2
  6
DASHED
 10
899.171997
 20
422.675537
 11
917.171997
 21
422.675537
  0
LINE
  8
LC-003-150-MLN-0
 62
     2
  6
DASHED
 10
902.171997
 20
447.018799
 11
902.171997
 21
422.675537
  0
LINE
  8
LC-003-150-MLN-0
 62
     2
  6
DASHED
 10
749.171997
 20
412.475525
 11
749.171997
 21
422.675537
  0
ARC
  8
LC-003-150-MLN-0
 62
     2
  6
DASHED
 10
750.971985
 20
412.475525
 40
1.800000
 50
180.000009
 51
269.999997
  0
LINE
  8
LC-003-150-MLN-0
 62
     2
  6
DASHED
 10
765.372009
 20
410.675537
 11
750.971985
 21
410.675537
  0
LINE
  8
LC-003-150-MLN-0
 62
     2
  6
DASHED
 10
914.171997
 20
447.018799
 11
914.171997
 21
422.675537
  0
LINE
  8
LC-003-150-MLN-0
 62
     2
  6
DASHED
 10
767.171997
 20
412.475525
 11
767.171997
 21
422.675537
  0
ARC
  8
LC-003-150-MLN-0
 62
     2
  6
DASHED
 10
765.372009
 20
412.475525
 40
1.800000
 50
269.999997
 51
0.000000
  0
LINE
  8
LC-003-150-MLN-0
 62
     2
  6
DASHED
 10
764.171997
 20
447.018799
 11
763.034485
 21
447.675537
  0
LINE
  8
LC-003-150-MLN-0
 62
     2
  6
DASHED
 10
753.309509
 20
447.675537
 11
763.034485
 21
447.675537
  0
LINE
  8
LC-003-150-MLN-0
 62
     2
  6
DASHED
 10
752.171997
 20
447.018799
 11
753.309509
 21
447.675537
  0
LINE
  8
LC-003-150-MLN-0
 62
     2
  6
DASHED
 10
751.421997
 20
422.675537
 11
751.421997
 21
432.675537
  0
LINE
  8
LC-003-150-MLN-0
 62
     2
  6
DASHED
 10
752.171997
 20
427.925537
 11
764.171997
 21
427.925537
  0
LINE
  8
LC-003-150-MLN-0
 62
     2
  6
DASHED
 10
752.171997
 20
447.018799
 11
764.171997
 21
447.018799
  0
LINE
  8
LC-003-150-MLN-0
 62
     2
  6
DASHED
 10
902.171997
 20
456.675537
 11
914.171997
 21
456.675537
  0
LINE
  8
LC-003-150-MLN-0
 62
     2
  6
DASHED
 10
913.034485
 20
447.675537
 11
913.034485
 21
464.975525
  0
LINE
  8
LC-003-150-MLN-0
 62
     2
  6
DASHED
 10
764.921997
 20
422.675537
 11
764.921997
 21
432.675537
  0
LINE
  8
LC-003-150-MLN-0
 62
     2
  6
DASHED
 10
763.034485
 20
464.975525
 11
758.171997
 21
467.782898
  0
LINE
  8
LC-003-150-MLN-0
 62
     2
  6
DASHED
 10
753.309509
 20
464.975525
 11
758.171997
 21
467.782898
  0
LINE
  8
LC-003-150-MLN-0
 62
     2
  6
DASHED
 10
753.309509
 20
447.675537
 11
753.309509
 21
464.975525
  0
LINE
  8
LC-003-150-MLN-0
 62
     2
  6
DASHED
 10
753.309509
 20
464.975525
 11
763.034485
 21
464.975525
  0
LINE
  8
LC-003-150-MLN-0
 62
     2
  6
DASHED
 10
753.309509
 20
447.675537
 11
753.309509
 21
427.925537
  0
LINE
  8
LC-003-150-MLN-0
 62
     2
  6
DASHED
 10
763.034485
 20
447.675537
 11
763.034485
 21
427.925537
  0
LINE
  8
LC-003-150-MLN-0
 62
     2
  6
DASHED
 10
748.171997
 20
401.759064
 11
748.171997
 21
422.675537
  0
LINE
  8
LC-003-150-MLN-0
 62
     2
  6
DASHED
 10
768.171997
 20
401.759064
 11
768.171997
 21
422.675537
  0
LINE
  8
LC-001-150-----0
 62
     2
  6
DASHDOT
 10
758.172180
 20
397.425385
 11
758.172180
 21
485.020844
  0
LINE
  8
LC-003-150-MLN-0
 62
     2
  6
DASHED
 10
899.171997
 20
412.475525
 11
899.171997
 21
422.675537
  0
ARC
  8
LC-003-150-MLN-0
 62
     2
  6
DASHED
 10
900.971985
 20
412.475525
 40
1.800000
 50
180.000009
 51
269.999997
  0
LINE
  8
LC-003-150-MLN-0
 62
     2
  6
DASHED
 10
915.372009
 20
410.675537
 11
900.971985
 21
410.675537
  0
LINE
  8
LC-003-150-MLN-0
 62
     2
  6
DASHED
 10
917.171997
 20
412.475525
 11
917.171997
 21
422.675537
  0
ARC
  8
LC-003-150-MLN-0
 62
     2
  6
DASHED
 10
915.372009
 20
412.475525
 40
1.800000
 50
269.999997
 51
0.000000
  0
LINE
  8
LC-003-150-MLN-0
 62
     2
  6
DASHED
 10
914.171997
 20
447.018799
 11
913.034485
 21
447.675537
  0
LINE
  8
LC-003-150-MLN-0
 62
     2
  6
DASHED
 10
903.309509
 20
447.675537
 11
913.034485
 21
447.675537
  0
LINE
  8
LC-003-150-MLN-0
 62
     2
  6
DASHED
 10
902.171997
 20
447.018799
 11
903.309509
 21
447.675537
  0
LINE
  8
LC-003-150-MLN-0
 62
     2
  6
DASHED
 10
901.421997
 20
422.675537
 11
901.421997
 21
432.675537
  0
LINE
  8
LC-003-150-MLN-0
 62
     2
  6
DASHED
 10
902.171997
 20
427.925537
 11
914.171997
 21
427.925537
  0
LINE
  8
LC-003-150-MLN-0
 62
     2
  6
DASHED
 10
902.171997
 20
447.018799
 11
914.171997
 21
447.018799
  0
LINE
  8
LC-003-150-MLN-0
 62
     2
  6
DASHED
 10
914.921997
 20
422.675537
 11
914.921997
 21
432.675537
  0
LINE
  8
LC-003-150-MLN-0
 62
     2
  6
DASHED
 10
913.034485
 20
464.975525
 11
908.171997
 21
467.782898
  0
LINE
  8
LC-003-150-MLN-0
 62
     2
  6
DASHED
 10
903.309509
 20
464.975525
 11
908.171997
 21
467.782898
  0
LINE
  8
LC-003-150-MLN-0
 62
     2
  6
DASHED
 10
903.309509
 20
447.675537
 11
903.309509
 21
464.975525
  0
LINE
  8
LC-003-150-MLN-0
 62
     2
  6
DASHED
 10
903.309509
 20
464.975525
 11
913.034485
 21
464.975525
  0
LINE
  8
LC-003-150-MLN-0
 62
     2
  6
DASHED
 10
903.309509
 20
447.675537
 11
903.309509
 21
427.925537
  0
LINE
  8
LC-003-150-MLN-0
 62
     2
  6
DASHED
 10
913.034485
 20
447.675537
 11
913.034485
 21
427.925537
  0
LINE
  8
LC-003-150-MLN-0
 62
     2
  6
DASHED
 10
898.171997
 20
401.759064
 11
898.171997
 21
422.675537
  0
LINE
  8
LC-003-150-MLN-0
 62
     2
  6
DASHED
 10
918.171997
 20
401.759064
 11
918.171997
 21
422.675537
  0
LINE
  8
LC-001-150-----0
 62
     2
  6
DASHDOT
 10
908.172180
 20
397.425385
 11
908.172180
 21
485.020844
  0
LINE
  8
LC-003-002-----0
 62
     1
  6
CONTINUOUS
 10
923.172180
 20
432.675537
 11
923.172180
 21
401.759064
  0
LINE
  8
LC-003-002-----0
 62
     1
  6
CONTINUOUS
 10
535.762817
 20
432.675537
 11
535.762817
 21
401.759064
  0
ENDSEC
  0
EOF
