  0
SECTION
  2
HEADER
  9
$LIMMIN
 10
421.765686
 20
201.018646
  9
$LIMMAX
 10
928.139709
 20
303.954773
  9
$EXTMIN
 10
421.765686
 20
201.018646
  9
$EXTMAX
 10
928.139709
 20
303.954773
  0
ENDSEC
  0
SECTION
  2
TABLES
  0
TABLE
  2
LTYPE
 70
     3
  0
LTYPE
  2
CONTINUOUS
 70
    64
  3
Ausgezogene Linie
 72
    65
 73
     0
 40
0.0
  0
LTYPE
  2
DASHED
 70
    64
  3
__ __ __ __ __ __ __ __ __ __ __ __ __ __ __
 72
    65
 73
     2
 40
0.75
 49
0.5
 49
-0.25
  0
LTYPE
  2
DASHDOT
 70
    64
  3
__ . __ . __ . __ . __ . __ . __ . __ . __ . __
 72
    65
 73
     4
 40
1.0
 49
0.5
 49
-0.25
 49
0.0
 49
-0.25
  0
ENDTAB
  0
TABLE
  2
LAYER
 70
     5
  0
LAYER
  2
LC-INFO-1-1-MM-A0-0
 70
    64
 62
     7
  6
CONTINUOUS
  0
LAYER
  2
LC-003-002-----0
 70
    64
 62
     7
  6
CONTINUOUS
  0
LAYER
  2
LC-001-150-----0
 70
    64
 62
     7
  6
CONTINUOUS
  0
LAYER
  2
LC-003-150-MLN-0
 70
    64
 62
     7
  6
CONTINUOUS
  0
LAYER
  2
LC-004-160-----0
 70
    64
 62
     7
  6
CONTINUOUS
  0
ENDTAB
  0
TABLE
  2
STYLE
 70
     1
  0
STYLE
  2
TXT8
 70
    64
 40
0.0
 41
1.0
 50
0.0
 71
     0
 42
3.500000
  3
TXT8
  4

  0
ENDTAB
  0
ENDSEC
  0
SECTION
  2
BLOCKS
  0
ENDSEC
  0
SECTION
  2
ENTITIES
  0
LINE
  8
LC-004-160-----0
 62
     2
  6
CONTINUOUS
 10
728.991455
 20
298.741028
 11
728.945740
 21
298.490753
  0
LINE
  8
LC-004-160-----0
 62
     2
  6
CONTINUOUS
 10
728.945740
 20
298.490753
 11
728.815063
 21
297.772736
  0
LINE
  8
LC-004-160-----0
 62
     2
  6
CONTINUOUS
 10
728.815063
 20
297.772736
 11
728.609558
 21
296.636261
  0
LINE
  8
LC-004-160-----0
 62
     2
  6
CONTINUOUS
 10
728.609558
 20
296.636261
 11
728.339111
 21
295.130554
  0
LINE
  8
LC-004-160-----0
 62
     2
  6
CONTINUOUS
 10
728.339111
 20
295.130554
 11
727.643250
 21
291.208405
  0
LINE
  8
LC-004-160-----0
 62
     2
  6
CONTINUOUS
 10
727.643250
 20
291.208405
 11
726.807312
 21
286.400177
  0
LINE
  8
LC-004-160-----0
 62
     2
  6
CONTINUOUS
 10
726.807312
 20
286.400177
 11
725.911072
 21
281.099854
  0
LINE
  8
LC-004-160-----0
 62
     2
  6
CONTINUOUS
 10
725.911072
 20
281.099854
 11
725.034302
 21
275.701324
  0
LINE
  8
LC-004-160-----0
 62
     2
  6
CONTINUOUS
 10
725.034302
 20
275.701324
 11
724.628052
 21
273.088348
  0
LINE
  8
LC-004-160-----0
 62
     2
  6
CONTINUOUS
 10
724.628052
 20
273.088348
 11
724.256653
 21
270.598572
  0
LINE
  8
LC-004-160-----0
 62
     2
  6
CONTINUOUS
 10
724.256653
 20
270.598572
 11
723.898071
 21
268.037415
  0
LINE
  8
LC-004-160-----0
 62
     2
  6
CONTINUOUS
 10
723.898071
 20
268.037415
 11
723.599731
 21
265.647064
  0
LINE
  8
LC-004-160-----0
 62
     2
  6
CONTINUOUS
 10
723.599731
 20
265.647064
 11
723.367493
 21
263.388733
  0
LINE
  8
LC-004-160-----0
 62
     2
  6
CONTINUOUS
 10
723.367493
 20
263.388733
 11
723.207092
 21
261.223541
  0
LINE
  8
LC-004-160-----0
 62
     2
  6
CONTINUOUS
 10
723.207092
 20
261.223541
 11
723.124390
 21
259.112671
  0
LINE
  8
LC-004-160-----0
 62
     2
  6
CONTINUOUS
 10
723.124390
 20
259.112671
 11
723.125244
 21
257.017273
  0
LINE
  8
LC-004-160-----0
 62
     2
  6
CONTINUOUS
 10
723.125244
 20
257.017273
 11
723.215454
 21
254.898529
  0
LINE
  8
LC-004-160-----0
 62
     2
  6
CONTINUOUS
 10
723.215454
 20
254.898529
 11
723.215454
 21
254.898529
  0
LINE
  8
LC-004-160-----0
 62
     2
  6
CONTINUOUS
 10
723.215454
 20
254.898529
 11
723.393066
 21
252.795349
  0
LINE
  8
LC-004-160-----0
 62
     2
  6
CONTINUOUS
 10
723.393066
 20
252.795349
 11
723.661682
 21
250.652603
  0
LINE
  8
LC-004-160-----0
 62
     2
  6
CONTINUOUS
 10
723.661682
 20
250.652603
 11
724.023010
 21
248.489166
  0
LINE
  8
LC-004-160-----0
 62
     2
  6
CONTINUOUS
 10
724.023010
 20
248.489166
 11
724.478638
 21
246.323853
  0
LINE
  8
LC-004-160-----0
 62
     2
  6
CONTINUOUS
 10
724.478638
 20
246.323853
 11
725.030212
 21
244.175507
  0
LINE
  8
LC-004-160-----0
 62
     2
  6
CONTINUOUS
 10
725.030212
 20
244.175507
 11
725.679382
 21
242.062988
  0
LINE
  8
LC-004-160-----0
 62
     2
  6
CONTINUOUS
 10
725.679382
 20
242.062988
 11
725.679382
 21
242.062988
  0
LINE
  8
LC-004-160-----0
 62
     2
  6
CONTINUOUS
 10
725.679382
 20
242.062988
 11
726.519775
 21
239.685654
  0
LINE
  8
LC-004-160-----0
 62
     2
  6
CONTINUOUS
 10
726.519775
 20
239.685654
 11
727.318054
 21
237.313904
  0
LINE
  8
LC-004-160-----0
 62
     2
  6
CONTINUOUS
 10
727.318054
 20
237.313904
 11
727.900879
 21
234.880981
  0
LINE
  8
LC-004-160-----0
 62
     2
  6
CONTINUOUS
 10
727.900879
 20
234.880981
 11
728.134155
 21
232.292343
  0
LINE
  8
LC-004-160-----0
 62
     2
  6
CONTINUOUS
 10
728.134155
 20
232.292343
 11
728.017334
 21
229.741013
  0
LINE
  8
LC-004-160-----0
 62
     2
  6
CONTINUOUS
 10
728.017334
 20
229.741013
 11
727.663879
 21
227.526199
  0
LINE
  8
LC-004-160-----0
 62
     2
  6
CONTINUOUS
 10
727.663879
 20
227.526199
 11
727.191101
 21
225.367249
  0
LINE
  8
LC-004-160-----0
 62
     2
  6
CONTINUOUS
 10
727.191101
 20
225.367249
 11
726.727173
 21
223.141953
  0
LINE
  8
LC-004-160-----0
 62
     2
  6
CONTINUOUS
 10
726.727173
 20
223.141953
 11
726.400391
 21
220.728088
  0
LINE
  8
LC-004-160-----0
 62
     2
  6
CONTINUOUS
 10
726.400391
 20
220.728088
 11
726.339050
 21
218.003448
  0
LINE
  8
LC-004-160-----0
 62
     2
  6
CONTINUOUS
 10
726.339050
 20
218.003448
 11
726.578369
 21
215.274277
  0
LINE
  8
LC-004-160-----0
 62
     2
  6
CONTINUOUS
 10
726.578369
 20
215.274277
 11
727.020142
 21
212.460724
  0
LINE
  8
LC-004-160-----0
 62
     2
  6
CONTINUOUS
 10
727.020142
 20
212.460724
 11
727.554626
 21
209.821716
  0
LINE
  8
LC-004-160-----0
 62
     2
  6
CONTINUOUS
 10
727.554626
 20
209.821716
 11
728.072205
 21
207.616165
  0
LINE
  8
LC-004-160-----0
 62
     2
  6
CONTINUOUS
 10
728.072205
 20
207.616165
 11
728.463196
 21
206.102951
  0
LINE
  8
LC-004-160-----0
 62
     2
  6
CONTINUOUS
 10
728.463196
 20
206.102951
 11
728.617859
 21
205.541016
  0
LINE
  8
LC-004-160-----0
 62
     2
  6
CONTINUOUS
 10
723.200439
 20
298.741028
 11
723.154724
 21
298.490753
  0
LINE
  8
LC-004-160-----0
 62
     2
  6
CONTINUOUS
 10
723.154724
 20
298.490753
 11
723.024048
 21
297.772736
  0
LINE
  8
LC-004-160-----0
 62
     2
  6
CONTINUOUS
 10
723.024048
 20
297.772736
 11
722.818542
 21
296.636261
  0
LINE
  8
LC-004-160-----0
 62
     2
  6
CONTINUOUS
 10
722.818542
 20
296.636261
 11
722.548096
 21
295.130554
  0
LINE
  8
LC-004-160-----0
 62
     2
  6
CONTINUOUS
 10
722.548096
 20
295.130554
 11
721.852234
 21
291.208405
  0
LINE
  8
LC-004-160-----0
 62
     2
  6
CONTINUOUS
 10
721.852234
 20
291.208405
 11
721.016296
 21
286.400177
  0
LINE
  8
LC-004-160-----0
 62
     2
  6
CONTINUOUS
 10
721.016296
 20
286.400177
 11
720.120056
 21
281.099854
  0
LINE
  8
LC-004-160-----0
 62
     2
  6
CONTINUOUS
 10
720.120056
 20
281.099854
 11
719.243286
 21
275.701324
  0
LINE
  8
LC-004-160-----0
 62
     2
  6
CONTINUOUS
 10
719.243286
 20
275.701324
 11
718.837097
 21
273.088348
  0
LINE
  8
LC-004-160-----0
 62
     2
  6
CONTINUOUS
 10
718.837097
 20
273.088348
 11
718.465637
 21
270.598572
  0
LINE
  8
LC-004-160-----0
 62
     2
  6
CONTINUOUS
 10
718.465637
 20
270.598572
 11
718.107056
 21
268.037415
  0
LINE
  8
LC-004-160-----0
 62
     2
  6
CONTINUOUS
 10
718.107056
 20
268.037415
 11
717.808716
 21
265.647064
  0
LINE
  8
LC-004-160-----0
 62
     2
  6
CONTINUOUS
 10
717.808716
 20
265.647064
 11
717.576477
 21
263.388733
  0
LINE
  8
LC-004-160-----0
 62
     2
  6
CONTINUOUS
 10
717.576477
 20
263.388733
 11
717.416077
 21
261.223541
  0
LINE
  8
LC-004-160-----0
 62
     2
  6
CONTINUOUS
 10
717.416077
 20
261.223541
 11
717.333374
 21
259.112671
  0
LINE
  8
LC-004-160-----0
 62
     2
  6
CONTINUOUS
 10
717.333374
 20
259.112671
 11
717.334229
 21
257.017273
  0
LINE
  8
LC-004-160-----0
 62
     2
  6
CONTINUOUS
 10
717.334229
 20
257.017273
 11
717.424438
 21
254.898529
  0
LINE
  8
LC-004-160-----0
 62
     2
  6
CONTINUOUS
 10
717.424438
 20
254.898529
 11
717.424438
 21
254.898529
  0
LINE
  8
LC-004-160-----0
 62
     2
  6
CONTINUOUS
 10
717.424438
 20
254.898529
 11
717.602051
 21
252.795349
  0
LINE
  8
LC-004-160-----0
 62
     2
  6
CONTINUOUS
 10
717.602051
 20
252.795349
 11
717.870667
 21
250.652603
  0
LINE
  8
LC-004-160-----0
 62
     2
  6
CONTINUOUS
 10
717.870667
 20
250.652603
 11
718.231995
 21
248.489166
  0
LINE
  8
LC-004-160-----0
 62
     2
  6
CONTINUOUS
 10
718.231995
 20
248.489166
 11
718.687622
 21
246.323853
  0
LINE
  8
LC-004-160-----0
 62
     2
  6
CONTINUOUS
 10
718.687622
 20
246.323853
 11
719.239197
 21
244.175507
  0
LINE
  8
LC-004-160-----0
 62
     2
  6
CONTINUOUS
 10
719.239197
 20
244.175507
 11
719.888367
 21
242.062988
  0
LINE
  8
LC-004-160-----0
 62
     2
  6
CONTINUOUS
 10
719.888367
 20
242.062988
 11
719.888367
 21
242.062988
  0
LINE
  8
LC-004-160-----0
 62
     2
  6
CONTINUOUS
 10
719.888367
 20
242.062988
 11
720.728760
 21
239.685654
  0
LINE
  8
LC-004-160-----0
 62
     2
  6
CONTINUOUS
 10
720.728760
 20
239.685654
 11
721.527039
 21
237.313904
  0
LINE
  8
LC-004-160-----0
 62
     2
  6
CONTINUOUS
 10
721.527039
 20
237.313904
 11
722.109863
 21
234.880981
  0
LINE
  8
LC-004-160-----0
 62
     2
  6
CONTINUOUS
 10
722.109863
 20
234.880981
 11
722.343140
 21
232.292343
  0
LINE
  8
LC-004-160-----0
 62
     2
  6
CONTINUOUS
 10
722.343140
 20
232.292343
 11
722.226318
 21
229.741013
  0
LINE
  8
LC-004-160-----0
 62
     2
  6
CONTINUOUS
 10
722.226318
 20
229.741013
 11
721.872864
 21
227.526199
  0
LINE
  8
LC-004-160-----0
 62
     2
  6
CONTINUOUS
 10
721.872864
 20
227.526199
 11
721.400085
 21
225.367249
  0
LINE
  8
LC-004-160-----0
 62
     2
  6
CONTINUOUS
 10
721.400085
 20
225.367249
 11
720.936157
 21
223.141953
  0
LINE
  8
LC-004-160-----0
 62
     2
  6
CONTINUOUS
 10
720.936157
 20
223.141953
 11
720.609436
 21
220.728088
  0
LINE
  8
LC-004-160-----0
 62
     2
  6
CONTINUOUS
 10
720.609436
 20
220.728088
 11
720.548035
 21
218.003448
  0
LINE
  8
LC-004-160-----0
 62
     2
  6
CONTINUOUS
 10
720.548035
 20
218.003448
 11
720.787415
 21
215.274277
  0
LINE
  8
LC-004-160-----0
 62
     2
  6
CONTINUOUS
 10
720.787415
 20
215.274277
 11
721.229126
 21
212.460724
  0
LINE
  8
LC-004-160-----0
 62
     2
  6
CONTINUOUS
 10
721.229126
 20
212.460724
 11
721.763611
 21
209.821716
  0
LINE
  8
LC-004-160-----0
 62
     2
  6
CONTINUOUS
 10
721.763611
 20
209.821716
 11
722.281189
 21
207.616165
  0
LINE
  8
LC-004-160-----0
 62
     2
  6
CONTINUOUS
 10
722.281189
 20
207.616165
 11
722.672180
 21
206.102951
  0
LINE
  8
LC-004-160-----0
 62
     2
  6
CONTINUOUS
 10
722.672180
 20
206.102951
 11
722.826843
 21
205.541016
  0
LINE
  8
LC-003-002-----0
 62
     1
  6
CONTINUOUS
 10
434.178772
 20
205.541016
 11
474.178772
 21
205.541016
  0
LINE
  8
LC-003-002-----0
 62
     1
  6
CONTINUOUS
 10
474.178772
 20
205.541016
 11
474.178772
 21
229.741013
  0
LINE
  8
LC-003-002-----0
 62
     1
  6
CONTINUOUS
 10
535.762817
 20
205.541016
 11
722.826843
 21
205.541016
  0
LINE
  8
LC-003-002-----0
 62
     1
  6
CONTINUOUS
 10
923.172180
 20
205.541016
 11
728.617859
 21
205.541016
  0
LINE
  8
LC-003-002-----0
 62
     1
  6
CONTINUOUS
 10
434.178772
 20
205.541016
 11
434.178772
 21
229.741013
  0
LINE
  8
LC-001-150-----0
 62
     2
  6
DASHDOT
 10
454.178772
 20
201.018646
 11
454.178772
 21
303.954773
  0
LINE
  8
LC-003-002-----0
 62
     1
  6
CONTINUOUS
 10
467.900391
 20
242.062988
 11
474.178772
 21
229.741013
  0
LINE
  8
LC-001-150-----0
 62
     2
  6
DASHDOT
 10
421.765686
 20
268.741028
 11
487.667938
 21
268.741028
  0
CIRCLE
  8
LC-003-002-----0
 62
     1
  6
CONTINUOUS
 10
454.178772
 20
268.741028
 40
30.000000
  0
CIRCLE
  8
LC-003-002-----0
 62
     1
  6
CONTINUOUS
 10
454.178772
 20
268.741028
 40
28.000000
  0
LINE
  8
LC-003-002-----0
 62
     1
  6
CONTINUOUS
 10
440.457123
 20
242.062988
 11
434.178772
 21
229.741013
  0
LINE
  8
LC-003-002-----0
 62
     1
  6
CONTINUOUS
 10
537.762817
 20
298.741028
 11
723.200439
 21
298.741028
  0
LINE
  8
LC-003-002-----0
 62
     1
  6
CONTINUOUS
 10
535.762817
 20
242.062988
 11
719.888367
 21
242.062988
  0
LINE
  8
LC-001-150-----0
 62
     2
  6
DASHDOT
 10
530.297180
 20
268.741028
 11
928.139709
 21
268.741028
  0
LINE
  8
LC-003-002-----0
 62
     1
  6
CONTINUOUS
 10
535.762817
 20
229.741013
 11
722.226318
 21
229.741013
  0
LINE
  8
LC-003-002-----0
 62
     1
  6
CONTINUOUS
 10
923.172180
 20
296.741028
 11
923.172180
 21
242.062973
  0
LINE
  8
LC-003-002-----0
 62
     1
  6
CONTINUOUS
 10
535.762817
 20
205.541016
 11
535.762817
 21
242.062988
  0
LINE
  8
LC-003-002-----0
 62
     1
  6
CONTINUOUS
 10
728.017944
 20
229.741013
 11
923.172180
 21
229.741013
  0
LINE
  8
LC-003-002-----0
 62
     1
  6
CONTINUOUS
 10
725.679688
 20
242.062988
 11
923.172180
 21
242.062988
  0
LINE
  8
LC-003-002-----0
 62
     1
  6
CONTINUOUS
 10
728.991455
 20
298.741028
 11
921.172180
 21
298.741028
  0
LINE
  8
LC-003-002-----0
 62
     1
  6
CONTINUOUS
 10
535.762817
 20
296.741028
 11
537.762817
 21
298.741028
  0
LINE
  8
LC-003-002-----0
 62
     1
  6
CONTINUOUS
 10
921.172180
 20
298.741028
 11
923.172180
 21
296.741028
  0
LINE
  8
LC-003-002-----0
 62
     1
  6
CONTINUOUS
 10
921.172180
 20
298.741028
 11
921.172180
 21
242.062973
  0
LINE
  8
LC-003-002-----0
 62
     1
  6
CONTINUOUS
 10
537.762817
 20
298.741028
 11
537.762817
 21
242.062973
  0
LINE
  8
LC-003-002-----0
 62
     1
  6
CONTINUOUS
 10
535.762817
 20
242.062988
 11
535.762817
 21
296.741028
  0
LINE
  8
LC-003-002-----0
 62
     1
  6
CONTINUOUS
 10
923.172180
 20
242.062988
 11
923.172180
 21
205.541016
  0
LINE
  8
LC-003-150-MLN-0
 62
     2
  6
DASHED
 10
445.178619
 20
231.062988
 11
463.178619
 21
231.062988
  0
LINE
  8
LC-003-150-MLN-0
 62
     2
  6
DASHED
 10
448.178619
 20
260.406250
 11
448.178619
 21
271.062988
  0
LINE
  8
LC-003-150-MLN-0
 62
     2
  6
DASHED
 10
460.178619
 20
260.406250
 11
460.178619
 21
271.062988
  0
LINE
  8
LC-003-150-MLN-0
 62
     2
  6
DASHED
 10
541.762695
 20
231.062988
 11
559.762695
 21
231.062988
  0
LINE
  8
LC-003-150-MLN-0
 62
     2
  6
DASHED
 10
544.762695
 20
260.406250
 11
544.762695
 21
271.062988
  0
LINE
  8
LC-003-150-MLN-0
 62
     2
  6
DASHED
 10
556.762695
 20
260.406250
 11
556.762695
 21
271.062988
  0
LINE
  8
LC-003-150-MLN-0
 62
     2
  6
DASHED
 10
544.762695
 20
271.062988
 11
556.762695
 21
271.062988
  0
LINE
  8
LC-003-150-MLN-0
 62
     2
  6
DASHED
 10
555.625183
 20
261.062988
 11
555.625183
 21
279.363007
  0
LINE
  8
LC-003-150-MLN-0
 62
     2
  6
DASHED
 10
541.762695
 20
220.862991
 11
541.762695
 21
231.062988
  0
ARC
  8
LC-003-150-MLN-0
 62
     2
  6
DASHED
 10
543.562683
 20
220.862991
 40
1.800000
 50
180.000009
 51
269.999997
  0
LINE
  8
LC-003-150-MLN-0
 62
     2
  6
DASHED
 10
557.962708
 20
219.062988
 11
543.562683
 21
219.062988
  0
LINE
  8
LC-003-150-MLN-0
 62
     2
  6
DASHED
 10
559.762695
 20
220.862991
 11
559.762695
 21
231.062988
  0
ARC
  8
LC-003-150-MLN-0
 62
     2
  6
DASHED
 10
557.962708
 20
220.862991
 40
1.800000
 50
269.999997
 51
0.000000
  0
LINE
  8
LC-003-150-MLN-0
 62
     2
  6
DASHED
 10
556.762695
 20
260.406250
 11
555.625183
 21
261.062988
  0
LINE
  8
LC-003-150-MLN-0
 62
     2
  6
DASHED
 10
545.900208
 20
261.062988
 11
555.625183
 21
261.062988
  0
LINE
  8
LC-003-150-MLN-0
 62
     2
  6
DASHED
 10
544.762695
 20
260.406250
 11
545.900208
 21
261.062988
  0
LINE
  8
LC-003-150-MLN-0
 62
     2
  6
DASHED
 10
544.012695
 20
231.062988
 11
544.012695
 21
242.062988
  0
LINE
  8
LC-003-150-MLN-0
 62
     2
  6
DASHED
 10
544.762695
 20
236.312988
 11
556.762695
 21
236.312988
  0
LINE
  8
LC-003-150-MLN-0
 62
     2
  6
DASHED
 10
544.762695
 20
260.406250
 11
556.762695
 21
260.406250
  0
LINE
  8
LC-003-150-MLN-0
 62
     2
  6
DASHED
 10
557.512695
 20
231.062988
 11
557.512695
 21
242.062988
  0
LINE
  8
LC-003-150-MLN-0
 62
     2
  6
DASHED
 10
555.625183
 20
279.363007
 11
550.762695
 21
282.170349
  0
LINE
  8
LC-003-150-MLN-0
 62
     2
  6
DASHED
 10
545.900208
 20
279.363007
 11
550.762695
 21
282.170349
  0
LINE
  8
LC-003-150-MLN-0
 62
     2
  6
DASHED
 10
545.900208
 20
261.062988
 11
545.900208
 21
279.363007
  0
LINE
  8
LC-003-150-MLN-0
 62
     2
  6
DASHED
 10
544.762695
 20
260.406250
 11
544.762695
 21
231.063004
  0
LINE
  8
LC-003-150-MLN-0
 62
     2
  6
DASHED
 10
545.900208
 20
279.363007
 11
555.625183
 21
279.363007
  0
LINE
  8
LC-003-150-MLN-0
 62
     2
  6
DASHED
 10
545.900208
 20
261.062988
 11
545.900208
 21
236.312988
  0
LINE
  8
LC-003-150-MLN-0
 62
     2
  6
DASHED
 10
556.762695
 20
260.406250
 11
556.762695
 21
231.063004
  0
LINE
  8
LC-003-150-MLN-0
 62
     2
  6
DASHED
 10
555.625183
 20
261.062988
 11
555.625183
 21
236.312988
  0
LINE
  8
LC-003-150-MLN-0
 62
     2
  6
DASHED
 10
540.762695
 20
205.541016
 11
540.762695
 21
231.062988
  0
LINE
  8
LC-003-150-MLN-0
 62
     2
  6
DASHED
 10
560.762695
 20
205.541016
 11
560.762695
 21
231.062988
  0
LINE
  8
LC-001-150-----0
 62
     2
  6
DASHDOT
 10
550.762817
 20
201.018646
 11
550.762817
 21
303.954773
  0
LINE
  8
LC-003-150-MLN-0
 62
     2
  6
DASHED
 10
691.762695
 20
231.062988
 11
709.762695
 21
231.062988
  0
LINE
  8
LC-003-150-MLN-0
 62
     2
  6
DASHED
 10
694.762695
 20
260.406250
 11
694.762695
 21
271.062988
  0
LINE
  8
LC-003-150-MLN-0
 62
     2
  6
DASHED
 10
706.762695
 20
260.406250
 11
706.762695
 21
271.062988
  0
LINE
  8
LC-003-150-MLN-0
 62
     2
  6
DASHED
 10
694.762695
 20
271.062988
 11
706.762695
 21
271.062988
  0
LINE
  8
LC-003-150-MLN-0
 62
     2
  6
DASHED
 10
705.625183
 20
261.062988
 11
705.625183
 21
279.363007
  0
LINE
  8
LC-003-150-MLN-0
 62
     2
  6
DASHED
 10
691.762695
 20
220.862991
 11
691.762695
 21
231.062988
  0
ARC
  8
LC-003-150-MLN-0
 62
     2
  6
DASHED
 10
693.562683
 20
220.862991
 40
1.800000
 50
180.000009
 51
269.999997
  0
LINE
  8
LC-003-150-MLN-0
 62
     2
  6
DASHED
 10
707.962708
 20
219.062988
 11
693.562683
 21
219.062988
  0
LINE
  8
LC-003-150-MLN-0
 62
     2
  6
DASHED
 10
709.762695
 20
220.862991
 11
709.762695
 21
231.062988
  0
ARC
  8
LC-003-150-MLN-0
 62
     2
  6
DASHED
 10
707.962708
 20
220.862991
 40
1.800000
 50
269.999997
 51
0.000000
  0
LINE
  8
LC-003-150-MLN-0
 62
     2
  6
DASHED
 10
706.762695
 20
260.406250
 11
705.625183
 21
261.062988
  0
LINE
  8
LC-003-150-MLN-0
 62
     2
  6
DASHED
 10
695.900208
 20
261.062988
 11
705.625183
 21
261.062988
  0
LINE
  8
LC-003-150-MLN-0
 62
     2
  6
DASHED
 10
694.762695
 20
260.406250
 11
695.900208
 21
261.062988
  0
LINE
  8
LC-003-150-MLN-0
 62
     2
  6
DASHED
 10
694.012695
 20
231.062988
 11
694.012695
 21
242.062988
  0
LINE
  8
LC-003-150-MLN-0
 62
     2
  6
DASHED
 10
694.762695
 20
236.312988
 11
706.762695
 21
236.312988
  0
LINE
  8
LC-003-150-MLN-0
 62
     2
  6
DASHED
 10
694.762695
 20
260.406250
 11
706.762695
 21
260.406250
  0
LINE
  8
LC-003-150-MLN-0
 62
     2
  6
DASHED
 10
707.512695
 20
231.062988
 11
707.512695
 21
242.062988
  0
LINE
  8
LC-003-150-MLN-0
 62
     2
  6
DASHED
 10
705.625183
 20
279.363007
 11
700.762695
 21
282.170349
  0
LINE
  8
LC-003-150-MLN-0
 62
     2
  6
DASHED
 10
695.900208
 20
279.363007
 11
700.762695
 21
282.170349
  0
LINE
  8
LC-003-150-MLN-0
 62
     2
  6
DASHED
 10
695.900208
 20
261.062988
 11
695.900208
 21
279.363007
  0
LINE
  8
LC-003-150-MLN-0
 62
     2
  6
DASHED
 10
694.762695
 20
260.406250
 11
694.762695
 21
231.063004
  0
LINE
  8
LC-003-150-MLN-0
 62
     2
  6
DASHED
 10
695.900208
 20
279.363007
 11
705.625183
 21
279.363007
  0
LINE
  8
LC-003-150-MLN-0
 62
     2
  6
DASHED
 10
695.900208
 20
261.062988
 11
695.900208
 21
236.312988
  0
LINE
  8
LC-003-150-MLN-0
 62
     2
  6
DASHED
 10
706.762695
 20
260.406250
 11
706.762695
 21
231.063004
  0
LINE
  8
LC-003-150-MLN-0
 62
     2
  6
DASHED
 10
705.625183
 20
261.062988
 11
705.625183
 21
236.312988
  0
LINE
  8
LC-003-150-MLN-0
 62
     2
  6
DASHED
 10
690.762695
 20
205.541016
 11
690.762695
 21
231.062988
  0
LINE
  8
LC-003-150-MLN-0
 62
     2
  6
DASHED
 10
710.762695
 20
205.541016
 11
710.762695
 21
231.062988
  0
LINE
  8
LC-001-150-----0
 62
     2
  6
DASHDOT
 10
700.762817
 20
201.018646
 11
700.762817
 21
303.954773
  0
LINE
  8
LC-003-150-MLN-0
 62
     2
  6
DASHED
 10
749.171997
 20
231.062988
 11
767.171997
 21
231.062988
  0
LINE
  8
LC-003-150-MLN-0
 62
     2
  6
DASHED
 10
752.171997
 20
260.406250
 11
752.171997
 21
271.062988
  0
LINE
  8
LC-003-150-MLN-0
 62
     2
  6
DASHED
 10
764.171997
 20
260.406250
 11
764.171997
 21
271.062988
  0
LINE
  8
LC-003-150-MLN-0
 62
     2
  6
DASHED
 10
752.171997
 20
271.062988
 11
764.171997
 21
271.062988
  0
LINE
  8
LC-003-150-MLN-0
 62
     2
  6
DASHED
 10
763.034485
 20
261.062988
 11
763.034485
 21
279.363007
  0
LINE
  8
LC-003-150-MLN-0
 62
     2
  6
DASHED
 10
749.171997
 20
220.862991
 11
749.171997
 21
231.062988
  0
ARC
  8
LC-003-150-MLN-0
 62
     2
  6
DASHED
 10
750.971985
 20
220.862991
 40
1.800000
 50
180.000009
 51
269.999997
  0
LINE
  8
LC-003-150-MLN-0
 62
     2
  6
DASHED
 10
765.372009
 20
219.062988
 11
750.971985
 21
219.062988
  0
LINE
  8
LC-003-150-MLN-0
 62
     2
  6
DASHED
 10
767.171997
 20
220.862991
 11
767.171997
 21
231.062988
  0
ARC
  8
LC-003-150-MLN-0
 62
     2
  6
DASHED
 10
765.372009
 20
220.862991
 40
1.800000
 50
269.999997
 51
0.000000
  0
LINE
  8
LC-003-150-MLN-0
 62
     2
  6
DASHED
 10
764.171997
 20
260.406250
 11
763.034485
 21
261.062988
  0
LINE
  8
LC-003-150-MLN-0
 62
     2
  6
DASHED
 10
753.309509
 20
261.062988
 11
763.034485
 21
261.062988
  0
LINE
  8
LC-003-150-MLN-0
 62
     2
  6
DASHED
 10
752.171997
 20
260.406250
 11
753.309509
 21
261.062988
  0
LINE
  8
LC-003-150-MLN-0
 62
     2
  6
DASHED
 10
751.421997
 20
231.062988
 11
751.421997
 21
242.062988
  0
LINE
  8
LC-003-150-MLN-0
 62
     2
  6
DASHED
 10
752.171997
 20
236.312988
 11
764.171997
 21
236.312988
  0
LINE
  8
LC-003-150-MLN-0
 62
     2
  6
DASHED
 10
752.171997
 20
260.406250
 11
764.171997
 21
260.406250
  0
LINE
  8
LC-003-150-MLN-0
 62
     2
  6
DASHED
 10
764.921997
 20
231.062988
 11
764.921997
 21
242.062988
  0
LINE
  8
LC-003-150-MLN-0
 62
     2
  6
DASHED
 10
448.178619
 20
271.062988
 11
460.178619
 21
271.062988
  0
LINE
  8
LC-003-150-MLN-0
 62
     2
  6
DASHED
 10
459.041138
 20
261.062988
 11
459.041138
 21
279.363007
  0
LINE
  8
LC-003-150-MLN-0
 62
     2
  6
DASHED
 10
763.034485
 20
279.363007
 11
758.171997
 21
282.170349
  0
LINE
  8
LC-003-150-MLN-0
 62
     2
  6
DASHED
 10
445.178619
 20
220.862991
 11
445.178619
 21
231.062988
  0
ARC
  8
LC-003-150-MLN-0
 62
     2
  6
DASHED
 10
446.978638
 20
220.862991
 40
1.800000
 50
180.000009
 51
269.999997
  0
LINE
  8
LC-003-150-MLN-0
 62
     2
  6
DASHED
 10
461.378632
 20
219.062988
 11
446.978638
 21
219.062988
  0
LINE
  8
LC-003-150-MLN-0
 62
     2
  6
DASHED
 10
463.178619
 20
220.862991
 11
463.178619
 21
231.062988
  0
ARC
  8
LC-003-150-MLN-0
 62
     2
  6
DASHED
 10
461.378632
 20
220.862991
 40
1.800000
 50
269.999997
 51
0.000000
  0
LINE
  8
LC-003-150-MLN-0
 62
     2
  6
DASHED
 10
460.178619
 20
260.406250
 11
459.041138
 21
261.062988
  0
LINE
  8
LC-003-150-MLN-0
 62
     2
  6
DASHED
 10
449.316132
 20
261.062988
 11
459.041138
 21
261.062988
  0
LINE
  8
LC-003-150-MLN-0
 62
     2
  6
DASHED
 10
448.178619
 20
260.406250
 11
449.316132
 21
261.062988
  0
LINE
  8
LC-003-150-MLN-0
 62
     2
  6
DASHED
 10
447.428619
 20
231.062988
 11
447.428619
 21
239.510284
  0
LINE
  8
LC-003-150-MLN-0
 62
     2
  6
DASHED
 10
448.178619
 20
236.312988
 11
460.178619
 21
236.312988
  0
LINE
  8
LC-003-150-MLN-0
 62
     2
  6
DASHED
 10
448.178619
 20
260.406250
 11
460.178619
 21
260.406250
  0
LINE
  8
LC-003-150-MLN-0
 62
     2
  6
DASHED
 10
460.928619
 20
231.062988
 11
460.928619
 21
239.510223
  0
LINE
  8
LC-003-150-MLN-0
 62
     2
  6
DASHED
 10
459.041138
 20
279.363007
 11
454.178619
 21
282.170349
  0
LINE
  8
LC-003-150-MLN-0
 62
     2
  6
DASHED
 10
449.316132
 20
279.363007
 11
454.178619
 21
282.170349
  0
LINE
  8
LC-003-150-MLN-0
 62
     2
  6
DASHED
 10
449.316132
 20
261.062988
 11
449.316132
 21
279.363007
  0
LINE
  8
LC-003-150-MLN-0
 62
     2
  6
DASHED
 10
753.309509
 20
279.363007
 11
758.171997
 21
282.170349
  0
LINE
  8
LC-003-150-MLN-0
 62
     2
  6
DASHED
 10
448.178619
 20
260.406250
 11
448.178619
 21
231.063004
  0
LINE
  8
LC-003-150-MLN-0
 62
     2
  6
DASHED
 10
449.316132
 20
279.363007
 11
459.041138
 21
279.363007
  0
LINE
  8
LC-003-150-MLN-0
 62
     2
  6
DASHED
 10
753.309509
 20
261.062988
 11
753.309509
 21
279.363007
  0
LINE
  8
LC-003-150-MLN-0
 62
     2
  6
DASHED
 10
449.316132
 20
261.062988
 11
449.316132
 21
236.312988
  0
LINE
  8
LC-003-150-MLN-0
 62
     2
  6
DASHED
 10
460.178619
 20
260.406250
 11
460.178619
 21
231.063004
  0
LINE
  8
LC-003-150-MLN-0
 62
     2
  6
DASHED
 10
459.041138
 20
261.062988
 11
459.041138
 21
236.312988
  0
LINE
  8
LC-003-150-MLN-0
 62
     2
  6
DASHED
 10
444.178619
 20
205.541016
 11
444.178619
 21
231.062988
  0
LINE
  8
LC-003-150-MLN-0
 62
     2
  6
DASHED
 10
464.178619
 20
205.541016
 11
464.178619
 21
231.062988
  0
LINE
  8
LC-003-150-MLN-0
 62
     2
  6
DASHED
 10
752.171997
 20
260.406250
 11
752.171997
 21
231.063004
  0
LINE
  8
LC-003-150-MLN-0
 62
     2
  6
DASHED
 10
753.309509
 20
279.363007
 11
763.034485
 21
279.363007
  0
LINE
  8
LC-003-150-MLN-0
 62
     2
  6
DASHED
 10
753.309509
 20
261.062988
 11
753.309509
 21
236.312988
  0
LINE
  8
LC-003-150-MLN-0
 62
     2
  6
DASHED
 10
764.171997
 20
260.406250
 11
764.171997
 21
231.063004
  0
LINE
  8
LC-003-150-MLN-0
 62
     2
  6
DASHED
 10
763.034485
 20
261.062988
 11
763.034485
 21
236.312988
  0
LINE
  8
LC-003-150-MLN-0
 62
     2
  6
DASHED
 10
748.171997
 20
205.541016
 11
748.171997
 21
231.062988
  0
LINE
  8
LC-003-150-MLN-0
 62
     2
  6
DASHED
 10
768.171997
 20
205.541016
 11
768.171997
 21
231.062988
  0
LINE
  8
LC-001-150-----0
 62
     2
  6
DASHDOT
 10
758.172180
 20
201.018646
 11
758.172180
 21
303.954773
  0
LINE
  8
LC-003-150-MLN-0
 62
     2
  6
DASHED
 10
899.171997
 20
231.062988
 11
917.171997
 21
231.062988
  0
LINE
  8
LC-003-150-MLN-0
 62
     2
  6
DASHED
 10
902.171997
 20
260.406250
 11
902.171997
 21
271.062988
  0
LINE
  8
LC-003-150-MLN-0
 62
     2
  6
DASHED
 10
914.171997
 20
260.406250
 11
914.171997
 21
271.062988
  0
LINE
  8
LC-003-150-MLN-0
 62
     2
  6
DASHED
 10
902.171997
 20
271.062988
 11
914.171997
 21
271.062988
  0
LINE
  8
LC-003-150-MLN-0
 62
     2
  6
DASHED
 10
913.034485
 20
261.062988
 11
913.034485
 21
279.363007
  0
LINE
  8
LC-003-150-MLN-0
 62
     2
  6
DASHED
 10
899.171997
 20
220.862991
 11
899.171997
 21
231.062988
  0
ARC
  8
LC-003-150-MLN-0
 62
     2
  6
DASHED
 10
900.971985
 20
220.862991
 40
1.800000
 50
180.000009
 51
269.999997
  0
LINE
  8
LC-003-150-MLN-0
 62
     2
  6
DASHED
 10
915.372009
 20
219.062988
 11
900.971985
 21
219.062988
  0
LINE
  8
LC-003-150-MLN-0
 62
     2
  6
DASHED
 10
917.171997
 20
220.862991
 11
917.171997
 21
231.062988
  0
ARC
  8
LC-003-150-MLN-0
 62
     2
  6
DASHED
 10
915.372009
 20
220.862991
 40
1.800000
 50
269.999997
 51
0.000000
  0
LINE
  8
LC-003-150-MLN-0
 62
     2
  6
DASHED
 10
914.171997
 20
260.406250
 11
913.034485
 21
261.062988
  0
LINE
  8
LC-003-150-MLN-0
 62
     2
  6
DASHED
 10
903.309509
 20
261.062988
 11
913.034485
 21
261.062988
  0
LINE
  8
LC-003-150-MLN-0
 62
     2
  6
DASHED
 10
902.171997
 20
260.406250
 11
903.309509
 21
261.062988
  0
LINE
  8
LC-003-150-MLN-0
 62
     2
  6
DASHED
 10
901.421997
 20
231.062988
 11
901.421997
 21
242.062988
  0
LINE
  8
LC-003-150-MLN-0
 62
     2
  6
DASHED
 10
902.171997
 20
236.312988
 11
914.171997
 21
236.312988
  0
LINE
  8
LC-003-150-MLN-0
 62
     2
  6
DASHED
 10
902.171997
 20
260.406250
 11
914.171997
 21
260.406250
  0
LINE
  8
LC-003-150-MLN-0
 62
     2
  6
DASHED
 10
914.921997
 20
231.062988
 11
914.921997
 21
242.062988
  0
LINE
  8
LC-003-150-MLN-0
 62
     2
  6
DASHED
 10
913.034485
 20
279.363007
 11
908.171997
 21
282.170349
  0
LINE
  8
LC-003-150-MLN-0
 62
     2
  6
DASHED
 10
903.309509
 20
279.363007
 11
908.171997
 21
282.170349
  0
LINE
  8
LC-003-150-MLN-0
 62
     2
  6
DASHED
 10
903.309509
 20
261.062988
 11
903.309509
 21
279.363007
  0
LINE
  8
LC-003-150-MLN-0
 62
     2
  6
DASHED
 10
902.171997
 20
260.406250
 11
902.171997
 21
231.063004
  0
LINE
  8
LC-003-150-MLN-0
 62
     2
  6
DASHED
 10
903.309509
 20
279.363007
 11
913.034485
 21
279.363007
  0
LINE
  8
LC-003-150-MLN-0
 62
     2
  6
DASHED
 10
903.309509
 20
261.062988
 11
903.309509
 21
236.312988
  0
LINE
  8
LC-003-150-MLN-0
 62
     2
  6
DASHED
 10
914.171997
 20
260.406250
 11
914.171997
 21
231.063004
  0
LINE
  8
LC-003-150-MLN-0
 62
     2
  6
DASHED
 10
913.034485
 20
261.062988
 11
913.034485
 21
236.312988
  0
LINE
  8
LC-003-150-MLN-0
 62
     2
  6
DASHED
 10
898.171997
 20
205.541016
 11
898.171997
 21
231.062988
  0
LINE
  8
LC-003-150-MLN-0
 62
     2
  6
DASHED
 10
918.171997
 20
205.541016
 11
918.171997
 21
231.062988
  0
LINE
  8
LC-001-150-----0
 62
     2
  6
DASHDOT
 10
908.172180
 20
201.018646
 11
908.172180
 21
303.954773
  0
ENDSEC
  0
EOF
