  0
SECTION
  2
HEADER
  9
$LIMMIN
 10
404.799713
 20
-14.416214
  9
$LIMMAX
 10
938.139709
 20
114.218575
  9
$EXTMIN
 10
404.799713
 20
-14.416214
  9
$EXTMAX
 10
938.139709
 20
114.218575
  0
ENDSEC
  0
SECTION
  2
TABLES
  0
TABLE
  2
LTYPE
 70
     3
  0
LTYPE
  2
CONTINUOUS
 70
    64
  3
Ausgezogene Linie
 72
    65
 73
     0
 40
0.0
  0
LTYPE
  2
DASHED
 70
    64
  3
__ __ __ __ __ __ __ __ __ __ __ __ __ __ __
 72
    65
 73
     2
 40
0.75
 49
0.5
 49
-0.25
  0
LTYPE
  2
DASHDOT
 70
    64
  3
__ . __ . __ . __ . __ . __ . __ . __ . __ . __
 72
    65
 73
     4
 40
1.0
 49
0.5
 49
-0.25
 49
0.0
 49
-0.25
  0
ENDTAB
  0
TABLE
  2
LAYER
 70
     5
  0
LAYER
  2
LC-INFO-1-1-MM-A0-0
 70
    64
 62
     7
  6
CONTINUOUS
  0
LAYER
  2
LC-003-002-----0
 70
    64
 62
     7
  6
CONTINUOUS
  0
LAYER
  2
LC-001-150-----0
 70
    64
 62
     7
  6
CONTINUOUS
  0
LAYER
  2
LC-003-150-MLN-0
 70
    64
 62
     7
  6
CONTINUOUS
  0
LAYER
  2
LC-004-160-----0
 70
    64
 62
     7
  6
CONTINUOUS
  0
ENDTAB
  0
TABLE
  2
STYLE
 70
     1
  0
STYLE
  2
TXT8
 70
    64
 40
0.0
 41
1.0
 50
0.0
 71
     0
 42
3.500000
  3
TXT8
  4

  0
ENDTAB
  0
ENDSEC
  0
SECTION
  2
BLOCKS
  0
ENDSEC
  0
SECTION
  2
ENTITIES
  0
LINE
  8
LC-004-160-----0
 62
     2
  6
CONTINUOUS
 10
739.081360
 20
110.161072
 11
739.024231
 21
109.940987
  0
LINE
  8
LC-004-160-----0
 62
     2
  6
CONTINUOUS
 10
739.024231
 20
109.940987
 11
738.861328
 21
109.306297
  0
LINE
  8
LC-004-160-----0
 62
     2
  6
CONTINUOUS
 10
738.861328
 20
109.306297
 11
738.605286
 21
108.295341
  0
LINE
  8
LC-004-160-----0
 62
     2
  6
CONTINUOUS
 10
738.605286
 20
108.295341
 11
738.268799
 21
106.946472
  0
LINE
  8
LC-004-160-----0
 62
     2
  6
CONTINUOUS
 10
738.268799
 20
106.946472
 11
737.405151
 21
103.388336
  0
LINE
  8
LC-004-160-----0
 62
     2
  6
CONTINUOUS
 10
737.405151
 20
103.388336
 11
736.371582
 21
98.938637
  0
LINE
  8
LC-004-160-----0
 62
     2
  6
CONTINUOUS
 10
736.371582
 20
98.938637
 11
735.269470
 21
93.904114
  0
LINE
  8
LC-004-160-----0
 62
     2
  6
CONTINUOUS
 10
735.269470
 20
93.904114
 11
734.200134
 21
88.591522
  0
LINE
  8
LC-004-160-----0
 62
     2
  6
CONTINUOUS
 10
734.200134
 20
88.591522
 11
733.709412
 21
85.926804
  0
LINE
  8
LC-004-160-----0
 62
     2
  6
CONTINUOUS
 10
733.709412
 20
85.926804
 11
733.264832
 21
83.307602
  0
LINE
  8
LC-004-160-----0
 62
     2
  6
CONTINUOUS
 10
733.264832
 20
83.307602
 11
732.879150
 21
80.772247
  0
LINE
  8
LC-004-160-----0
 62
     2
  6
CONTINUOUS
 10
732.879150
 20
80.772247
 11
732.554504
 21
78.283089
  0
LINE
  8
LC-004-160-----0
 62
     2
  6
CONTINUOUS
 10
732.554504
 20
78.283089
 11
732.303772
 21
75.910912
  0
LINE
  8
LC-004-160-----0
 62
     2
  6
CONTINUOUS
 10
732.303772
 20
75.910912
 11
732.125183
 21
73.643402
  0
LINE
  8
LC-004-160-----0
 62
     2
  6
CONTINUOUS
 10
732.125183
 20
73.643402
 11
732.016846
 21
71.468239
  0
LINE
  8
LC-004-160-----0
 62
     2
  6
CONTINUOUS
 10
732.016846
 20
71.468239
 11
732.004089
 21
67.345665
  0
LINE
  8
LC-004-160-----0
 62
     2
  6
CONTINUOUS
 10
732.004089
 20
67.345665
 11
732.251282
 21
63.444653
  0
LINE
  8
LC-004-160-----0
 62
     2
  6
CONTINUOUS
 10
732.251282
 20
63.444649
 11
732.744141
 21
59.666630
  0
LINE
  8
LC-004-160-----0
 62
     2
  6
CONTINUOUS
 10
732.744141
 20
59.666630
 11
733.078186
 21
57.792950
  0
LINE
  8
LC-004-160-----0
 62
     2
  6
CONTINUOUS
 10
733.078186
 20
57.792950
 11
733.468384
 21
55.913055
  0
LINE
  8
LC-004-160-----0
 62
     2
  6
CONTINUOUS
 10
733.468384
 20
55.913055
 11
733.912842
 21
54.014641
  0
LINE
  8
LC-004-160-----0
 62
     2
  6
CONTINUOUS
 10
733.912842
 20
54.014641
 11
734.394592
 21
52.135986
  0
LINE
  8
LC-004-160-----0
 62
     2
  6
CONTINUOUS
 10
734.394592
 20
52.135986
 11
734.910583
 21
50.231171
  0
LINE
  8
LC-004-160-----0
 62
     2
  6
CONTINUOUS
 10
734.910583
 20
50.231171
 11
735.445190
 21
48.303364
  0
LINE
  8
LC-004-160-----0
 62
     2
  6
CONTINUOUS
 10
735.445190
 20
48.303364
 11
736.507568
 21
44.391476
  0
LINE
  8
LC-004-160-----0
 62
     2
  6
CONTINUOUS
 10
736.507568
 20
44.391476
 11
737.456299
 21
40.425720
  0
LINE
  8
LC-004-160-----0
 62
     2
  6
CONTINUOUS
 10
737.456299
 20
40.425720
 11
738.166077
 21
36.431496
  0
LINE
  8
LC-004-160-----0
 62
     2
  6
CONTINUOUS
 10
738.166077
 20
36.431496
 11
738.392212
 21
34.431641
  0
LINE
  8
LC-004-160-----0
 62
     2
  6
CONTINUOUS
 10
738.392212
 20
34.431641
 11
738.526001
 21
32.194675
  0
LINE
  8
LC-004-160-----0
 62
     2
  6
CONTINUOUS
 10
738.526001
 20
32.194675
 11
738.552856
 21
29.954388
  0
LINE
  8
LC-004-160-----0
 62
     2
  6
CONTINUOUS
 10
738.552856
 20
29.954390
 11
738.499329
 21
27.704460
  0
LINE
  8
LC-004-160-----0
 62
     2
  6
CONTINUOUS
 10
738.499329
 20
27.704460
 11
738.392212
 21
25.438553
  0
LINE
  8
LC-004-160-----0
 62
     2
  6
CONTINUOUS
 10
738.392212
 20
25.438553
 11
738.241577
 21
23.016674
  0
LINE
  8
LC-004-160-----0
 62
     2
  6
CONTINUOUS
 10
738.241577
 20
23.016674
 11
738.047607
 21
20.661072
  0
LINE
  8
LC-004-160-----0
 62
     2
  6
CONTINUOUS
 10
738.047607
 20
20.661072
 11
737.833313
 21
18.692726
  0
LINE
  8
LC-004-160-----0
 62
     2
  6
CONTINUOUS
 10
737.833313
 20
18.692726
 11
737.584412
 21
16.800831
  0
LINE
  8
LC-004-160-----0
 62
     2
  6
CONTINUOUS
 10
737.584412
 20
16.800831
 11
737.309998
 21
14.938956
  0
LINE
  8
LC-004-160-----0
 62
     2
  6
CONTINUOUS
 10
737.309998
 20
14.938957
 11
736.720886
 21
11.119574
  0
LINE
  8
LC-004-160-----0
 62
     2
  6
CONTINUOUS
 10
736.720886
 20
11.119574
 11
736.138611
 21
6.863170
  0
LINE
  8
LC-004-160-----0
 62
     2
  6
CONTINUOUS
 10
736.138611
 20
6.863169
 11
735.872681
 21
4.455019
  0
LINE
  8
LC-004-160-----0
 62
     2
  6
CONTINUOUS
 10
735.872681
 20
4.455019
 11
735.635681
 21
1.798336
  0
LINE
  8
LC-004-160-----0
 62
     2
  6
CONTINUOUS
 10
735.635681
 20
1.798336
 11
735.435730
 21
-1.085254
  0
LINE
  8
LC-004-160-----0
 62
     2
  6
CONTINUOUS
 10
735.435730
 20
-1.085254
 11
735.276123
 21
-3.921960
  0
LINE
  8
LC-004-160-----0
 62
     2
  6
CONTINUOUS
 10
735.276123
 20
-3.921960
 11
735.159180
 21
-6.370598
  0
LINE
  8
LC-004-160-----0
 62
     2
  6
CONTINUOUS
 10
735.159180
 20
-6.370598
 11
735.087280
 21
-8.089982
  0
LINE
  8
LC-004-160-----0
 62
     2
  6
CONTINUOUS
 10
735.087280
 20
-8.089982
 11
735.062744
 21
-8.738929
  0
LINE
  8
LC-004-160-----0
 62
     2
  6
CONTINUOUS
 10
731.845459
 20
110.161072
 11
731.788330
 21
109.940987
  0
LINE
  8
LC-004-160-----0
 62
     2
  6
CONTINUOUS
 10
731.788330
 20
109.940987
 11
731.625427
 21
109.306297
  0
LINE
  8
LC-004-160-----0
 62
     2
  6
CONTINUOUS
 10
731.625427
 20
109.306297
 11
731.369385
 21
108.295341
  0
LINE
  8
LC-004-160-----0
 62
     2
  6
CONTINUOUS
 10
731.369385
 20
108.295341
 11
731.032898
 21
106.946472
  0
LINE
  8
LC-004-160-----0
 62
     2
  6
CONTINUOUS
 10
731.032898
 20
106.946472
 11
730.169250
 21
103.388336
  0
LINE
  8
LC-004-160-----0
 62
     2
  6
CONTINUOUS
 10
730.169250
 20
103.388336
 11
729.135681
 21
98.938637
  0
LINE
  8
LC-004-160-----0
 62
     2
  6
CONTINUOUS
 10
729.135681
 20
98.938637
 11
728.033569
 21
93.904114
  0
LINE
  8
LC-004-160-----0
 62
     2
  6
CONTINUOUS
 10
728.033569
 20
93.904114
 11
726.964233
 21
88.591522
  0
LINE
  8
LC-004-160-----0
 62
     2
  6
CONTINUOUS
 10
726.964233
 20
88.591522
 11
726.473511
 21
85.926804
  0
LINE
  8
LC-004-160-----0
 62
     2
  6
CONTINUOUS
 10
726.473511
 20
85.926804
 11
726.028931
 21
83.307602
  0
LINE
  8
LC-004-160-----0
 62
     2
  6
CONTINUOUS
 10
726.028931
 20
83.307602
 11
725.643250
 21
80.772247
  0
LINE
  8
LC-004-160-----0
 62
     2
  6
CONTINUOUS
 10
725.643250
 20
80.772247
 11
725.318604
 21
78.283089
  0
LINE
  8
LC-004-160-----0
 62
     2
  6
CONTINUOUS
 10
725.318604
 20
78.283089
 11
725.067871
 21
75.910912
  0
LINE
  8
LC-004-160-----0
 62
     2
  6
CONTINUOUS
 10
725.067871
 20
75.910912
 11
724.889282
 21
73.643402
  0
LINE
  8
LC-004-160-----0
 62
     2
  6
CONTINUOUS
 10
724.889282
 20
73.643402
 11
724.780945
 21
71.468239
  0
LINE
  8
LC-004-160-----0
 62
     2
  6
CONTINUOUS
 10
724.780945
 20
71.468239
 11
724.768188
 21
67.345665
  0
LINE
  8
LC-004-160-----0
 62
     2
  6
CONTINUOUS
 10
724.768188
 20
67.345665
 11
725.015381
 21
63.444653
  0
LINE
  8
LC-004-160-----0
 62
     2
  6
CONTINUOUS
 10
725.015381
 20
63.444649
 11
725.508240
 21
59.666630
  0
LINE
  8
LC-004-160-----0
 62
     2
  6
CONTINUOUS
 10
725.508240
 20
59.666630
 11
725.842285
 21
57.792950
  0
LINE
  8
LC-004-160-----0
 62
     2
  6
CONTINUOUS
 10
725.842285
 20
57.792950
 11
726.232483
 21
55.913055
  0
LINE
  8
LC-004-160-----0
 62
     2
  6
CONTINUOUS
 10
726.232483
 20
55.913055
 11
726.676941
 21
54.014641
  0
LINE
  8
LC-004-160-----0
 62
     2
  6
CONTINUOUS
 10
726.676941
 20
54.014641
 11
727.158691
 21
52.135986
  0
LINE
  8
LC-004-160-----0
 62
     2
  6
CONTINUOUS
 10
727.158691
 20
52.135986
 11
727.674683
 21
50.231171
  0
LINE
  8
LC-004-160-----0
 62
     2
  6
CONTINUOUS
 10
727.674683
 20
50.231171
 11
728.209290
 21
48.303364
  0
LINE
  8
LC-004-160-----0
 62
     2
  6
CONTINUOUS
 10
728.209290
 20
48.303364
 11
729.271667
 21
44.391476
  0
LINE
  8
LC-004-160-----0
 62
     2
  6
CONTINUOUS
 10
729.271667
 20
44.391476
 11
730.220398
 21
40.425720
  0
LINE
  8
LC-004-160-----0
 62
     2
  6
CONTINUOUS
 10
730.220398
 20
40.425720
 11
730.930176
 21
36.431496
  0
LINE
  8
LC-004-160-----0
 62
     2
  6
CONTINUOUS
 10
730.930176
 20
36.431496
 11
731.156311
 21
34.431641
  0
LINE
  8
LC-004-160-----0
 62
     2
  6
CONTINUOUS
 10
731.156311
 20
34.431641
 11
731.290161
 21
32.194675
  0
LINE
  8
LC-004-160-----0
 62
     2
  6
CONTINUOUS
 10
731.290161
 20
32.194675
 11
731.316956
 21
29.954388
  0
LINE
  8
LC-004-160-----0
 62
     2
  6
CONTINUOUS
 10
731.316956
 20
29.954390
 11
731.263428
 21
27.704460
  0
LINE
  8
LC-004-160-----0
 62
     2
  6
CONTINUOUS
 10
731.263428
 20
27.704460
 11
731.156311
 21
25.438553
  0
LINE
  8
LC-004-160-----0
 62
     2
  6
CONTINUOUS
 10
731.156311
 20
25.438553
 11
731.005676
 21
23.016674
  0
LINE
  8
LC-004-160-----0
 62
     2
  6
CONTINUOUS
 10
731.005676
 20
23.016674
 11
730.811707
 21
20.661072
  0
LINE
  8
LC-004-160-----0
 62
     2
  6
CONTINUOUS
 10
730.811707
 20
20.661072
 11
730.597412
 21
18.692726
  0
LINE
  8
LC-004-160-----0
 62
     2
  6
CONTINUOUS
 10
730.597412
 20
18.692726
 11
730.348511
 21
16.800831
  0
LINE
  8
LC-004-160-----0
 62
     2
  6
CONTINUOUS
 10
730.348511
 20
16.800831
 11
730.074097
 21
14.938956
  0
LINE
  8
LC-004-160-----0
 62
     2
  6
CONTINUOUS
 10
730.074097
 20
14.938957
 11
729.484985
 21
11.119574
  0
LINE
  8
LC-004-160-----0
 62
     2
  6
CONTINUOUS
 10
729.484985
 20
11.119574
 11
728.902710
 21
6.863170
  0
LINE
  8
LC-004-160-----0
 62
     2
  6
CONTINUOUS
 10
728.902710
 20
6.863169
 11
728.636780
 21
4.455019
  0
LINE
  8
LC-004-160-----0
 62
     2
  6
CONTINUOUS
 10
728.636780
 20
4.455019
 11
728.399780
 21
1.798336
  0
LINE
  8
LC-004-160-----0
 62
     2
  6
CONTINUOUS
 10
728.399780
 20
1.798336
 11
728.199890
 21
-1.085254
  0
LINE
  8
LC-004-160-----0
 62
     2
  6
CONTINUOUS
 10
728.199890
 20
-1.085254
 11
728.040222
 21
-3.921960
  0
LINE
  8
LC-004-160-----0
 62
     2
  6
CONTINUOUS
 10
728.040222
 20
-3.921960
 11
727.923279
 21
-6.370598
  0
LINE
  8
LC-004-160-----0
 62
     2
  6
CONTINUOUS
 10
727.923279
 20
-6.370598
 11
727.851379
 21
-8.089982
  0
LINE
  8
LC-004-160-----0
 62
     2
  6
CONTINUOUS
 10
727.851379
 20
-8.089982
 11
727.826843
 21
-8.738929
  0
LINE
  8
LC-003-002-----0
 62
     1
  6
CONTINUOUS
 10
424.178772
 20
-8.738929
 11
474.178772
 21
-8.738929
  0
LINE
  8
LC-003-002-----0
 62
     1
  6
CONTINUOUS
 10
474.178772
 20
-8.738929
 11
474.178772
 21
20.661072
  0
LINE
  8
LC-003-002-----0
 62
     1
  6
CONTINUOUS
 10
535.762817
 20
-8.738929
 11
727.826843
 21
-8.738929
  0
LINE
  8
LC-003-002-----0
 62
     1
  6
CONTINUOUS
 10
535.762817
 20
-8.738929
 11
535.762817
 21
34.431641
  0
LINE
  8
LC-003-002-----0
 62
     1
  6
CONTINUOUS
 10
933.172180
 20
108.161072
 11
933.172180
 21
34.431641
  0
LINE
  8
LC-003-002-----0
 62
     1
  6
CONTINUOUS
 10
933.172180
 20
-8.738929
 11
735.062744
 21
-8.738929
  0
LINE
  8
LC-003-002-----0
 62
     1
  6
CONTINUOUS
 10
424.178772
 20
-8.738929
 11
424.178772
 21
20.661072
  0
LINE
  8
LC-001-150-----0
 62
     2
  6
DASHDOT
 10
449.178772
 20
-14.416214
 11
449.178772
 21
114.218575
  0
LINE
  8
LC-003-002-----0
 62
     1
  6
CONTINUOUS
 10
467.162292
 20
34.431641
 11
474.178772
 21
20.661072
  0
LINE
  8
LC-001-150-----0
 62
     2
  6
DASHDOT
 10
404.799713
 20
70.161072
 11
493.671295
 21
70.161072
  0
CIRCLE
  8
LC-003-002-----0
 62
     1
  6
CONTINUOUS
 10
449.178772
 20
70.161072
 40
40.000000
  0
CIRCLE
  8
LC-003-002-----0
 62
     1
  6
CONTINUOUS
 10
449.178772
 20
70.161072
 40
38.000000
  0
LINE
  8
LC-003-002-----0
 62
     1
  6
CONTINUOUS
 10
431.195221
 20
34.431641
 11
424.178772
 21
20.661072
  0
LINE
  8
LC-003-002-----0
 62
     1
  6
CONTINUOUS
 10
535.762817
 20
20.661072
 11
730.811707
 21
20.661072
  0
LINE
  8
LC-003-002-----0
 62
     1
  6
CONTINUOUS
 10
535.762817
 20
34.431641
 11
731.156311
 21
34.431641
  0
LINE
  8
LC-001-150-----0
 62
     2
  6
DASHDOT
 10
530.297180
 20
70.161072
 11
938.139709
 21
70.161072
  0
LINE
  8
LC-003-002-----0
 62
     1
  6
CONTINUOUS
 10
537.762817
 20
110.161072
 11
731.845459
 21
110.161072
  0
LINE
  8
LC-003-002-----0
 62
     1
  6
CONTINUOUS
 10
738.034058
 20
20.661072
 11
933.172180
 21
20.661072
  0
LINE
  8
LC-003-002-----0
 62
     1
  6
CONTINUOUS
 10
738.419434
 20
34.431641
 11
933.172180
 21
34.431641
  0
LINE
  8
LC-003-002-----0
 62
     1
  6
CONTINUOUS
 10
739.081360
 20
110.161072
 11
931.172180
 21
110.161072
  0
LINE
  8
LC-003-002-----0
 62
     1
  6
CONTINUOUS
 10
535.762817
 20
108.161072
 11
537.762817
 21
110.161072
  0
LINE
  8
LC-003-002-----0
 62
     1
  6
CONTINUOUS
 10
931.172180
 20
110.161072
 11
933.172180
 21
108.161072
  0
LINE
  8
LC-003-002-----0
 62
     1
  6
CONTINUOUS
 10
537.762817
 20
110.161072
 11
537.762817
 21
34.431641
  0
LINE
  8
LC-003-002-----0
 62
     1
  6
CONTINUOUS
 10
931.172180
 20
110.161072
 11
931.172180
 21
34.431641
  0
LINE
  8
LC-003-002-----0
 62
     1
  6
CONTINUOUS
 10
535.762817
 20
34.431641
 11
535.762817
 21
108.161072
  0
LINE
  8
LC-003-002-----0
 62
     1
  6
CONTINUOUS
 10
933.172180
 20
34.431641
 11
933.172180
 21
-8.738929
  0
LINE
  8
LC-003-150-MLN-0
 62
     2
  6
DASHED
 10
437.178772
 20
19.931641
 11
461.178772
 21
19.931641
  0
LINE
  8
LC-003-150-MLN-0
 62
     2
  6
DASHED
 10
441.178772
 20
19.931641
 11
441.178772
 21
69.181084
  0
LINE
  8
LC-003-150-MLN-0
 62
     2
  6
DASHED
 10
457.178772
 20
19.931641
 11
457.178772
 21
69.181084
  0
LINE
  8
LC-003-150-MLN-0
 62
     2
  6
DASHED
 10
543.762817
 20
19.931641
 11
567.762817
 21
19.931641
  0
LINE
  8
LC-003-150-MLN-0
 62
     2
  6
DASHED
 10
547.762817
 20
19.931641
 11
547.762817
 21
69.181084
  0
LINE
  8
LC-003-150-MLN-0
 62
     2
  6
DASHED
 10
563.762817
 20
19.931641
 11
563.762817
 21
69.181084
  0
LINE
  8
LC-003-150-MLN-0
 62
     2
  6
DASHED
 10
547.762817
 20
75.431641
 11
563.762817
 21
75.431641
  0
LINE
  8
LC-003-150-MLN-0
 62
     2
  6
DASHED
 10
562.462830
 20
69.931641
 11
562.462830
 21
84.731644
  0
LINE
  8
LC-003-150-MLN-0
 62
     2
  6
DASHED
 10
543.762817
 20
6.331641
 11
543.762817
 21
19.931641
  0
ARC
  8
LC-003-150-MLN-0
 62
     2
  6
DASHED
 10
546.162842
 20
6.331641
 40
2.400000
 50
180.000009
 51
269.999997
  0
LINE
  8
LC-003-150-MLN-0
 62
     2
  6
DASHED
 10
565.362854
 20
3.931641
 11
546.162842
 21
3.931641
  0
LINE
  8
LC-003-150-MLN-0
 62
     2
  6
DASHED
 10
567.762817
 20
6.331641
 11
567.762817
 21
19.931641
  0
ARC
  8
LC-003-150-MLN-0
 62
     2
  6
DASHED
 10
565.362854
 20
6.331641
 40
2.400000
 50
269.999997
 51
0.000000
  0
LINE
  8
LC-003-150-MLN-0
 62
     2
  6
DASHED
 10
563.762817
 20
69.181084
 11
562.462830
 21
69.931641
  0
LINE
  8
LC-003-150-MLN-0
 62
     2
  6
DASHED
 10
549.062866
 20
69.931641
 11
562.462830
 21
69.931641
  0
LINE
  8
LC-003-150-MLN-0
 62
     2
  6
DASHED
 10
547.762817
 20
69.181084
 11
549.062866
 21
69.931641
  0
LINE
  8
LC-003-150-MLN-0
 62
     2
  6
DASHED
 10
547.012817
 20
19.931641
 11
547.012817
 21
34.431641
  0
LINE
  8
LC-003-150-MLN-0
 62
     2
  6
DASHED
 10
547.762817
 20
25.931641
 11
563.762817
 21
25.931641
  0
LINE
  8
LC-003-150-MLN-0
 62
     2
  6
DASHED
 10
547.762817
 20
69.181084
 11
563.762817
 21
69.181084
  0
LINE
  8
LC-003-150-MLN-0
 62
     2
  6
DASHED
 10
564.512817
 20
19.931641
 11
564.512817
 21
34.431641
  0
LINE
  8
LC-003-150-MLN-0
 62
     2
  6
DASHED
 10
562.462830
 20
84.731644
 11
555.762817
 21
88.599892
  0
LINE
  8
LC-003-150-MLN-0
 62
     2
  6
DASHED
 10
549.062866
 20
84.731644
 11
555.762817
 21
88.599892
  0
LINE
  8
LC-003-150-MLN-0
 62
     2
  6
DASHED
 10
549.062866
 20
69.931641
 11
549.062866
 21
84.731644
  0
LINE
  8
LC-003-150-MLN-0
 62
     2
  6
DASHED
 10
549.062866
 20
84.731644
 11
562.462830
 21
84.731644
  0
LINE
  8
LC-003-150-MLN-0
 62
     2
  6
DASHED
 10
549.062866
 20
69.931641
 11
549.062866
 21
25.931641
  0
LINE
  8
LC-003-150-MLN-0
 62
     2
  6
DASHED
 10
562.462830
 20
69.931641
 11
562.462830
 21
25.931641
  0
LINE
  8
LC-003-150-MLN-0
 62
     2
  6
DASHED
 10
542.762817
 20
-8.738929
 11
542.762817
 21
19.931641
  0
LINE
  8
LC-003-150-MLN-0
 62
     2
  6
DASHED
 10
568.762817
 20
-8.738929
 11
568.762817
 21
19.931641
  0
LINE
  8
LC-001-150-----0
 62
     2
  6
DASHDOT
 10
555.762817
 20
-14.416214
 11
555.762817
 21
114.218575
  0
LINE
  8
LC-003-150-MLN-0
 62
     2
  6
DASHED
 10
693.762817
 20
19.931641
 11
717.762817
 21
19.931641
  0
LINE
  8
LC-003-150-MLN-0
 62
     2
  6
DASHED
 10
697.762817
 20
19.931641
 11
697.762817
 21
69.181084
  0
LINE
  8
LC-003-150-MLN-0
 62
     2
  6
DASHED
 10
713.762817
 20
19.931641
 11
713.762817
 21
69.181084
  0
LINE
  8
LC-003-150-MLN-0
 62
     2
  6
DASHED
 10
697.762817
 20
75.431641
 11
713.762817
 21
75.431641
  0
LINE
  8
LC-003-150-MLN-0
 62
     2
  6
DASHED
 10
712.462830
 20
69.931641
 11
712.462830
 21
84.731644
  0
LINE
  8
LC-003-150-MLN-0
 62
     2
  6
DASHED
 10
693.762817
 20
6.331641
 11
693.762817
 21
19.931641
  0
ARC
  8
LC-003-150-MLN-0
 62
     2
  6
DASHED
 10
696.162842
 20
6.331641
 40
2.400000
 50
180.000009
 51
269.999997
  0
LINE
  8
LC-003-150-MLN-0
 62
     2
  6
DASHED
 10
715.362854
 20
3.931641
 11
696.162842
 21
3.931641
  0
LINE
  8
LC-003-150-MLN-0
 62
     2
  6
DASHED
 10
717.762817
 20
6.331641
 11
717.762817
 21
19.931641
  0
ARC
  8
LC-003-150-MLN-0
 62
     2
  6
DASHED
 10
715.362854
 20
6.331641
 40
2.400000
 50
269.999997
 51
0.000000
  0
LINE
  8
LC-003-150-MLN-0
 62
     2
  6
DASHED
 10
713.762817
 20
69.181084
 11
712.462830
 21
69.931641
  0
LINE
  8
LC-003-150-MLN-0
 62
     2
  6
DASHED
 10
699.062866
 20
69.931641
 11
712.462830
 21
69.931641
  0
LINE
  8
LC-003-150-MLN-0
 62
     2
  6
DASHED
 10
697.762817
 20
69.181084
 11
699.062866
 21
69.931641
  0
LINE
  8
LC-003-150-MLN-0
 62
     2
  6
DASHED
 10
697.012817
 20
19.931641
 11
697.012817
 21
34.431641
  0
LINE
  8
LC-003-150-MLN-0
 62
     2
  6
DASHED
 10
697.762817
 20
25.931641
 11
713.762817
 21
25.931641
  0
LINE
  8
LC-003-150-MLN-0
 62
     2
  6
DASHED
 10
441.178772
 20
75.431641
 11
457.178772
 21
75.431641
  0
LINE
  8
LC-003-150-MLN-0
 62
     2
  6
DASHED
 10
455.878754
 20
69.931641
 11
455.878754
 21
84.731644
  0
LINE
  8
LC-003-150-MLN-0
 62
     2
  6
DASHED
 10
697.762817
 20
69.181084
 11
713.762817
 21
69.181084
  0
LINE
  8
LC-003-150-MLN-0
 62
     2
  6
DASHED
 10
437.178772
 20
6.331641
 11
437.178772
 21
19.931641
  0
ARC
  8
LC-003-150-MLN-0
 62
     2
  6
DASHED
 10
439.578766
 20
6.331641
 40
2.400000
 50
180.000009
 51
269.999997
  0
LINE
  8
LC-003-150-MLN-0
 62
     2
  6
DASHED
 10
458.778778
 20
3.931641
 11
439.578766
 21
3.931641
  0
LINE
  8
LC-003-150-MLN-0
 62
     2
  6
DASHED
 10
461.178772
 20
6.331641
 11
461.178772
 21
19.931641
  0
ARC
  8
LC-003-150-MLN-0
 62
     2
  6
DASHED
 10
458.778778
 20
6.331641
 40
2.400000
 50
269.999997
 51
0.000000
  0
LINE
  8
LC-003-150-MLN-0
 62
     2
  6
DASHED
 10
457.178772
 20
69.181084
 11
455.878754
 21
69.931641
  0
LINE
  8
LC-003-150-MLN-0
 62
     2
  6
DASHED
 10
442.478760
 20
69.931641
 11
455.878754
 21
69.931641
  0
LINE
  8
LC-003-150-MLN-0
 62
     2
  6
DASHED
 10
441.178772
 20
69.181084
 11
442.478760
 21
69.931641
  0
LINE
  8
LC-003-150-MLN-0
 62
     2
  6
DASHED
 10
714.512817
 20
19.931641
 11
714.512817
 21
34.431641
  0
LINE
  8
LC-003-150-MLN-0
 62
     2
  6
DASHED
 10
712.462830
 20
84.731644
 11
705.762817
 21
88.599892
  0
LINE
  8
LC-003-150-MLN-0
 62
     2
  6
DASHED
 10
440.428772
 20
19.931641
 11
440.428772
 21
31.129833
  0
LINE
  8
LC-003-150-MLN-0
 62
     2
  6
DASHED
 10
441.178772
 20
25.931641
 11
457.178772
 21
25.931641
  0
LINE
  8
LC-003-150-MLN-0
 62
     2
  6
DASHED
 10
441.178772
 20
69.181084
 11
457.178772
 21
69.181084
  0
LINE
  8
LC-003-150-MLN-0
 62
     2
  6
DASHED
 10
457.928772
 20
19.931641
 11
457.928772
 21
31.129833
  0
LINE
  8
LC-003-150-MLN-0
 62
     2
  6
DASHED
 10
455.878754
 20
84.731644
 11
449.178772
 21
88.599892
  0
LINE
  8
LC-003-150-MLN-0
 62
     2
  6
DASHED
 10
442.478760
 20
84.731644
 11
449.178772
 21
88.599892
  0
LINE
  8
LC-003-150-MLN-0
 62
     2
  6
DASHED
 10
442.478760
 20
69.931641
 11
442.478760
 21
84.731644
  0
LINE
  8
LC-003-150-MLN-0
 62
     2
  6
DASHED
 10
699.062866
 20
84.731644
 11
705.762817
 21
88.599892
  0
LINE
  8
LC-003-150-MLN-0
 62
     2
  6
DASHED
 10
699.062866
 20
69.931641
 11
699.062866
 21
84.731644
  0
LINE
  8
LC-003-150-MLN-0
 62
     2
  6
DASHED
 10
442.478760
 20
84.731644
 11
455.878754
 21
84.731644
  0
LINE
  8
LC-003-150-MLN-0
 62
     2
  6
DASHED
 10
699.062866
 20
84.731644
 11
712.462830
 21
84.731644
  0
LINE
  8
LC-003-150-MLN-0
 62
     2
  6
DASHED
 10
442.478760
 20
69.931641
 11
442.478760
 21
25.931641
  0
LINE
  8
LC-003-150-MLN-0
 62
     2
  6
DASHED
 10
699.062866
 20
69.931641
 11
699.062866
 21
25.931641
  0
LINE
  8
LC-003-150-MLN-0
 62
     2
  6
DASHED
 10
455.878754
 20
69.931641
 11
455.878754
 21
25.931641
  0
LINE
  8
LC-003-150-MLN-0
 62
     2
  6
DASHED
 10
436.178772
 20
-8.738929
 11
436.178772
 21
19.931641
  0
LINE
  8
LC-003-150-MLN-0
 62
     2
  6
DASHED
 10
462.178772
 20
-8.738929
 11
462.178772
 21
19.931641
  0
LINE
  8
LC-003-150-MLN-0
 62
     2
  6
DASHED
 10
712.462830
 20
69.931641
 11
712.462830
 21
25.931641
  0
LINE
  8
LC-003-150-MLN-0
 62
     2
  6
DASHED
 10
692.762817
 20
-8.738929
 11
692.762817
 21
19.931641
  0
LINE
  8
LC-003-150-MLN-0
 62
     2
  6
DASHED
 10
718.762817
 20
-8.738929
 11
718.762817
 21
19.931641
  0
LINE
  8
LC-001-150-----0
 62
     2
  6
DASHDOT
 10
705.762817
 20
-14.416214
 11
705.762817
 21
114.218575
  0
LINE
  8
LC-003-150-MLN-0
 62
     2
  6
DASHED
 10
751.172180
 20
19.931641
 11
775.172180
 21
19.931641
  0
LINE
  8
LC-003-150-MLN-0
 62
     2
  6
DASHED
 10
755.172180
 20
19.931641
 11
755.172180
 21
69.181084
  0
LINE
  8
LC-003-150-MLN-0
 62
     2
  6
DASHED
 10
771.172180
 20
19.931641
 11
771.172180
 21
69.181084
  0
LINE
  8
LC-003-150-MLN-0
 62
     2
  6
DASHED
 10
755.172180
 20
75.431641
 11
771.172180
 21
75.431641
  0
LINE
  8
LC-003-150-MLN-0
 62
     2
  6
DASHED
 10
769.872131
 20
69.931641
 11
769.872131
 21
84.731644
  0
LINE
  8
LC-003-150-MLN-0
 62
     2
  6
DASHED
 10
751.172180
 20
6.331641
 11
751.172180
 21
19.931641
  0
ARC
  8
LC-003-150-MLN-0
 62
     2
  6
DASHED
 10
753.572144
 20
6.331641
 40
2.400000
 50
180.000009
 51
269.999997
  0
LINE
  8
LC-003-150-MLN-0
 62
     2
  6
DASHED
 10
772.772156
 20
3.931641
 11
753.572144
 21
3.931641
  0
LINE
  8
LC-003-150-MLN-0
 62
     2
  6
DASHED
 10
775.172180
 20
6.331641
 11
775.172180
 21
19.931641
  0
ARC
  8
LC-003-150-MLN-0
 62
     2
  6
DASHED
 10
772.772156
 20
6.331641
 40
2.400000
 50
269.999997
 51
0.000000
  0
LINE
  8
LC-003-150-MLN-0
 62
     2
  6
DASHED
 10
771.172180
 20
69.181084
 11
769.872131
 21
69.931641
  0
LINE
  8
LC-003-150-MLN-0
 62
     2
  6
DASHED
 10
756.472168
 20
69.931641
 11
769.872131
 21
69.931641
  0
LINE
  8
LC-003-150-MLN-0
 62
     2
  6
DASHED
 10
755.172180
 20
69.181084
 11
756.472168
 21
69.931641
  0
LINE
  8
LC-003-150-MLN-0
 62
     2
  6
DASHED
 10
754.422180
 20
19.931641
 11
754.422180
 21
34.431641
  0
LINE
  8
LC-003-150-MLN-0
 62
     2
  6
DASHED
 10
755.172180
 20
25.931641
 11
771.172180
 21
25.931641
  0
LINE
  8
LC-003-150-MLN-0
 62
     2
  6
DASHED
 10
755.172180
 20
69.181084
 11
771.172180
 21
69.181084
  0
LINE
  8
LC-003-150-MLN-0
 62
     2
  6
DASHED
 10
771.922180
 20
19.931641
 11
771.922180
 21
34.431641
  0
LINE
  8
LC-003-150-MLN-0
 62
     2
  6
DASHED
 10
769.872131
 20
84.731644
 11
763.172180
 21
88.599892
  0
LINE
  8
LC-003-150-MLN-0
 62
     2
  6
DASHED
 10
756.472168
 20
84.731644
 11
763.172180
 21
88.599892
  0
LINE
  8
LC-003-150-MLN-0
 62
     2
  6
DASHED
 10
756.472168
 20
69.931641
 11
756.472168
 21
84.731644
  0
LINE
  8
LC-003-150-MLN-0
 62
     2
  6
DASHED
 10
756.472168
 20
84.731644
 11
769.872131
 21
84.731644
  0
LINE
  8
LC-003-150-MLN-0
 62
     2
  6
DASHED
 10
901.172180
 20
19.931641
 11
925.172180
 21
19.931641
  0
LINE
  8
LC-003-150-MLN-0
 62
     2
  6
DASHED
 10
905.172180
 20
19.931641
 11
905.172180
 21
69.181084
  0
LINE
  8
LC-003-150-MLN-0
 62
     2
  6
DASHED
 10
921.172180
 20
19.931641
 11
921.172180
 21
69.181084
  0
LINE
  8
LC-003-150-MLN-0
 62
     2
  6
DASHED
 10
756.472168
 20
69.931641
 11
756.472168
 21
25.931641
  0
LINE
  8
LC-003-150-MLN-0
 62
     2
  6
DASHED
 10
769.872131
 20
69.931641
 11
769.872131
 21
25.931641
  0
LINE
  8
LC-003-150-MLN-0
 62
     2
  6
DASHED
 10
750.172180
 20
-8.738929
 11
750.172180
 21
19.931641
  0
LINE
  8
LC-003-150-MLN-0
 62
     2
  6
DASHED
 10
905.172180
 20
75.431641
 11
921.172180
 21
75.431641
  0
LINE
  8
LC-003-150-MLN-0
 62
     2
  6
DASHED
 10
776.172180
 20
-8.738929
 11
776.172180
 21
19.931641
  0
LINE
  8
LC-003-150-MLN-0
 62
     2
  6
DASHED
 10
919.872131
 20
69.931641
 11
919.872131
 21
84.731644
  0
LINE
  8
LC-001-150-----0
 62
     2
  6
DASHDOT
 10
763.172180
 20
-14.416214
 11
763.172180
 21
114.218575
  0
LINE
  8
LC-003-150-MLN-0
 62
     2
  6
DASHED
 10
901.172180
 20
6.331641
 11
901.172180
 21
19.931641
  0
ARC
  8
LC-003-150-MLN-0
 62
     2
  6
DASHED
 10
903.572144
 20
6.331641
 40
2.400000
 50
180.000009
 51
269.999997
  0
LINE
  8
LC-003-150-MLN-0
 62
     2
  6
DASHED
 10
922.772156
 20
3.931641
 11
903.572144
 21
3.931641
  0
LINE
  8
LC-003-150-MLN-0
 62
     2
  6
DASHED
 10
925.172180
 20
6.331641
 11
925.172180
 21
19.931641
  0
ARC
  8
LC-003-150-MLN-0
 62
     2
  6
DASHED
 10
922.772156
 20
6.331641
 40
2.400000
 50
269.999997
 51
0.000000
  0
LINE
  8
LC-003-150-MLN-0
 62
     2
  6
DASHED
 10
921.172180
 20
69.181084
 11
919.872131
 21
69.931641
  0
LINE
  8
LC-003-150-MLN-0
 62
     2
  6
DASHED
 10
906.472168
 20
69.931641
 11
919.872131
 21
69.931641
  0
LINE
  8
LC-003-150-MLN-0
 62
     2
  6
DASHED
 10
905.172180
 20
69.181084
 11
906.472168
 21
69.931641
  0
LINE
  8
LC-003-150-MLN-0
 62
     2
  6
DASHED
 10
904.422180
 20
19.931641
 11
904.422180
 21
34.431641
  0
LINE
  8
LC-003-150-MLN-0
 62
     2
  6
DASHED
 10
905.172180
 20
25.931641
 11
921.172180
 21
25.931641
  0
LINE
  8
LC-003-150-MLN-0
 62
     2
  6
DASHED
 10
905.172180
 20
69.181084
 11
921.172180
 21
69.181084
  0
LINE
  8
LC-003-150-MLN-0
 62
     2
  6
DASHED
 10
921.922180
 20
19.931641
 11
921.922180
 21
34.431641
  0
LINE
  8
LC-003-150-MLN-0
 62
     2
  6
DASHED
 10
919.872131
 20
84.731644
 11
913.172180
 21
88.599892
  0
LINE
  8
LC-003-150-MLN-0
 62
     2
  6
DASHED
 10
906.472168
 20
84.731644
 11
913.172180
 21
88.599892
  0
LINE
  8
LC-003-150-MLN-0
 62
     2
  6
DASHED
 10
906.472168
 20
69.931641
 11
906.472168
 21
84.731644
  0
LINE
  8
LC-003-150-MLN-0
 62
     2
  6
DASHED
 10
906.472168
 20
84.731644
 11
919.872131
 21
84.731644
  0
LINE
  8
LC-003-150-MLN-0
 62
     2
  6
DASHED
 10
906.472168
 20
69.931641
 11
906.472168
 21
25.931641
  0
LINE
  8
LC-003-150-MLN-0
 62
     2
  6
DASHED
 10
919.872131
 20
69.931641
 11
919.872131
 21
25.931641
  0
LINE
  8
LC-003-150-MLN-0
 62
     2
  6
DASHED
 10
900.172180
 20
-8.738929
 11
900.172180
 21
19.931641
  0
LINE
  8
LC-003-150-MLN-0
 62
     2
  6
DASHED
 10
926.172180
 20
-8.738929
 11
926.172180
 21
19.931641
  0
LINE
  8
LC-001-150-----0
 62
     2
  6
DASHDOT
 10
913.172180
 20
-14.416214
 11
913.172180
 21
114.218575
  0
ENDSEC
  0
EOF
