  0
SECTION
  2
HEADER
  9
$ACADVER
  1
AC1014
  9
$ACADMAINTVER
 70
           0
  9
$DWGCODEPAGE
  3
DOS850
  9
$INSBASE
 10
0.0
 20
0.0
 30
0.0
  9
$EXTMIN
 10
382.992157
 20
426.957733
 30
0.0
  9
$EXTMAX
 10
626.065125
 20
667.050598
 30
0.0
  9
$LIMMIN
 10
382.992157
 20
426.957733
  9
$LIMMAX
 10
626.065125
 20
667.050598
  9
$ORTHOMODE
 70
           0
  9
$REGENMODE
 70
           1
  9
$FILLMODE
 70
           1
  9
$QTEXTMODE
 70
           0
  9
$MIRRTEXT
 70
           1
  9
$DRAGMODE
 70
           2
  9
$LTSCALE
 40
5.0
  9
$OSMODE
 70
           0
  9
$ATTMODE
 70
           1
  9
$TEXTSIZE
 40
0.2
  9
$TRACEWID
 40
0.05
  9
$TEXTSTYLE
  7
TXT
  9
$CLAYER
  8
0
  9
$CELTYPE
  6
CONTINUOUS
  9
$CECOLOR
 62
         256
  9
$CELTSCALE
 40
1.0
  9
$DELOBJ
 70
           1
  9
$DISPSILH
 70
           0
  9
$DIMSCALE
 40
1.0
  9
$DIMASZ
 40
3.5
  9
$DIMEXO
 40
0.0625
  9
$DIMDLI
 40
0.38
  9
$DIMRND
 40
0.0
  9
$DIMDLE
 40
0.0
  9
$DIMEXE
 40
0.18
  9
$DIMTP
 40
0.0
  9
$DIMTM
 40
0.0
  9
$DIMTXT
 40
3.5
  9
$DIMCEN
 40
0.09
  9
$DIMTSZ
 40
0.0
  9
$DIMTOL
 70
           0
  9
$DIMLIM
 70
           0
  9
$DIMTIH
 70
           1
  9
$DIMTOH
 70
           1
  9
$DIMSE1
 70
           0
  9
$DIMSE2
 70
           0
  9
$DIMTAD
 70
           0
  9
$DIMZIN
 70
           0
  9
$DIMBLK
  1

  9
$DIMASO
 70
           1
  9
$DIMSHO
 70
           1
  9
$DIMPOST
  1

  9
$DIMAPOST
  1

  9
$DIMALT
 70
           0
  9
$DIMALTD
 70
           2
  9
$DIMALTF
 40
25.4
  9
$DIMLFAC
 40
1.0
  9
$DIMTOFL
 70
           0
  9
$DIMTVP
 40
0.0
  9
$DIMTIX
 70
           0
  9
$DIMSOXD
 70
           0
  9
$DIMSAH
 70
           0
  9
$DIMBLK1
  1

  9
$DIMBLK2
  1

  9
$DIMSTYLE
  2
STANDARD
  9
$DIMCLRD
 70
           0
  9
$DIMCLRE
 70
           0
  9
$DIMCLRT
 70
           0
  9
$DIMTFAC
 40
1.0
  9
$DIMGAP
 40
0.09
  9
$DIMJUST
 70
           0
  9
$DIMSD1
 70
           0
  9
$DIMSD2
 70
           0
  9
$DIMTOLJ
 70
           1
  9
$DIMTZIN
 70
           0
  9
$DIMALTZ
 70
           0
  9
$DIMALTTZ
 70
           0
  9
$DIMFIT
 70
           3
  9
$DIMUPT
 70
           0
  9
$DIMUNIT
 70
           2
  9
$DIMDEC
 70
           4
  9
$DIMTDEC
 70
           4
  9
$DIMALTU
 70
           2
  9
$DIMALTTD
 70
           2
  9
$DIMTXSTY
  7
TXT
  9
$DIMAUNIT
 70
           0
  9
$LUNITS
 70
           2
  9
$LUPREC
 70
           2
  9
$SKETCHINC
 40
0.1
  9
$FILLETRAD
 40
0.0
  9
$AUNITS
 70
           0
  9
$AUPREC
 70
           2
  9
$MENU
  1
acad
  9
$ELEVATION
 40
0.0
  9
$PELEVATION
 40
0.0
  9
$THICKNESS
 40
0.0
  9
$LIMCHECK
 70
           0
  9
$BLIPMODE
 70
           1
  9
$CHAMFERA
 40
0.0
  9
$CHAMFERB
 40
0.0
  9
$CHAMFERC
 40
0.0
  9
$CHAMFERD
 40
0.0
  9
$SKPOLY
 70
           0
  9
$TDCREATE
 40
0.000000000
  9
$TDUPDATE
 40
0.000000000
  9
$TDINDWG
 40
0.0000000000
  9
$TDUSRTIMER
 40
0.0000000000
  9
$USRTIMER
 70
           1
  9
$ANGBASE
 50
0.0
  9
$ANGDIR
 70
           0
  9
$PDMODE
 70
           2
  9
$PDSIZE
 40
0.5
  9
$PLINEWID
 40
0.0
  9
$COORDS
 70
           0
  9
$SPLFRAME
 70
           0
  9
$SPLINETYPE
 70
           6
  9
$SPLINESEGS
 70
           8
  9
$ATTDIA
 70
           0
  9
$ATTREQ
 70
           1
  9
$HANDLING
 70
           1
  9
$HANDSEED
  5
73
  9
$SURFTAB1
 70
           6
  9
$SURFTAB2
 70
           6
  9
$SURFTYPE
 70
           6
  9
$SURFU
 70
           6
  9
$SURFV
 70
           6
  9
$UCSNAME
  2

  9
$UCSORG
 10
0.0
 20
0.0
 30
0.0
  9
$UCSXDIR
 10
1.0
 20
0.0
 30
0.0
  9
$UCSYDIR
 10
0.0
 20
1.0
 30
0.0
  9
$PUCSNAME
  2

  9
$PUCSORG
 10
0.0
 20
0.0
 30
0.0
  9
$PUCSXDIR
 10
1.0
 20
0.0
 30
0.0
  9
$PUCSYDIR
 10
0.0
 20
1.0
 30
0.0
  9
$USERI1
 70
           0
  9
$USERI2
 70
           0
  9
$USERI3
 70
           0
  9
$USERI4
 70
           0
  9
$USERI5
 70
           0
  9
$USERR1
 40
0.0
  9
$USERR2
 40
0.0
  9
$USERR3
 40
0.0
  9
$USERR4
 40
0.0
  9
$USERR5
 40
0.0
  9
$WORLDVIEW
 70
           1
  9
$SHADEDGE
 70
           3
  9
$SHADEDIF
 70
          70
  9
$TILEMODE
 70
           1
  9
$MAXACTVP
 70
          16
  9
$PINSBASE
 10
0.0
 20
0.0
 30
0.0
  9
$PLIMCHECK
 70
           0
  9
$PEXTMIN
 10
1.000000000000E+20
 20
1.000000000000E+20
 30
1.000000000000E+20
  9
$PEXTMAX
 10
-1.000000000000E+20
 20
-1.000000000000E+20
 30
-1.000000000000E+20
  9
$PLIMMIN
 10
0.0
 20
0.0
  9
$PLIMMAX
 10
12.0
 20
9.0
  9
$UNITMODE
 70
           0
  9
$VISRETAIN
 70
           0
  9
$PLINEGEN
 70
           1
  9
$PSLTSCALE
 70
           0
  9
$TREEDEPTH
 70
        3020
  9
$PICKSTYLE
 70
           1
  9
$CMLSTYLE
  2
STANDARD
  9
$CMLJUST
 70
           0
  9
$CMLSCALE
 40
1.0
  9
$PROXYGRAPHICS
 70
           0
  9
$MEASUREMENT
 70
           0
  0
ENDSEC
  0
SECTION
  2
CLASSES
  0
CLASS
  1
LWPOLYLINE
  2
AcDbPolyline
  3
"AutoCAD"
 90
        0
280
           0
281
           1
  0
CLASS
  1
IMAGE
  2
AcDbRasterImage
  3
ISM
 90
      127
280
           0
281
           1
  0
CLASS
  1
OLE2FRAME
  2
AcDbOle2Frame
  3
""
 90
        0
280
           0
281
           1
  0
CLASS
  1
HATCH
  2
AcDbHatch
  3
"ACAD_SEDONA"
 90
        0
280
           0
281
           1
  0
CLASS
  1
DICTIONARYVAR
  2
AcDbDictionaryVar
  3
"AutoCAD"
 90
        0
280
           0
281
           0
  0
CLASS
  1
RASTERVARIABLES
  2
AcDbRasterVariables
  3
ISM
 90
        0
280
           0
281
           0
  0
CLASS
  1
IMAGEDEF
  2
AcDbRasterImageDef
  3
ISM
 90
        0
280
           0
281
           0
  0
CLASS
  1
IMAGEDEF_REACTOR
  2
AcDbRasterImageDefReactor
  3
ISM
 90
        1
280
           0
281
           0
  0
CLASS
  1
IDBUFFER
  2
AcDbIdBuffer
  3
"Acad"
 90
        0
280
           0
281
           0
  0
CLASS
  1
SPATIAL_FILTER
  2
AcDbSpatialFilter
  3
"Acad"
 90
        0
280
           0
281
           0
  0
CLASS
  1
XRECORD
  2
AcDbXrecord
  3
"<Built In>"
 90
        0
280
           0
281
           0
  0
CLASS
  1
SORTENTSTABLE
  2
AcDbSortentsTable
  3
"AutoCAD"
 90
        0
280
           0
281
           0
  0
CLASS
  1
LAYER_INDEX
  2
AcDbLayerIndex
  3
"Acad"
 90
        0
280
           0
281
           0
  0
CLASS
  1
SPATIAL_INDEX
  2
AcDbSpatialIndex
  3
"Acad"
 90
        0
280
           0
281
           0
  0
CLASS
  1
OBJECT_PTR
  2
CAseDLPNTableRecord
  3
"ASE-LPNTableRecord"
 90
        1
280
           0
281
           0
  0
CLASS
  1
LAYOUT
  2
AcDbLayout
  3
"AutoCAD 2000"
 90
        1
280
           0
281
           0
  0
CLASS
  1
PLOTSETTINGS
  2
AcDbPlotSettings
  3
"AutoCAD 2000"
 90
        1
280
           0
281
           0
  0
CLASS
  1
ACDBDICTIONARYWDFLT
  2
AcDbDictionaryWithDefault
  3
"AutoCAD 2000"
 90
        1
280
           0
281
           0
  0
CLASS
  1
ACDBPLACEHOLDER
  2
AcDbPlaceHolder
  3
"AutoCAD 2000"
 90
        1
280
           0
281
           0
  0
CLASS
  1
VBA_PROJECT
  2
AcDbVbaProject
  3
"acadvba"
 90
        1
280
           0
281
           0
  0
CLASS
  1
WIPEOUT
  2
AcDbWipeout
  3
WipeOut|AutoCAD Express Tool|expresstools@autodesk.com
 90
      127
280
           0
281
           1
  0
CLASS
  1
WIPEOUTVARIABLES
  2
AcDbWipeoutVariables
  3
WipeOut|AutoCAD Express Tool|expresstools@autodesk.com
 90
        0
280
           0
281
           0
  0
CLASS
  1
RTEXT
  2
RText
  3
RText|AutoCAD Express Tool|expresstools@autodesk.com
 90
        0
280
           0
281
           1
  0
CLASS
  1
ARCALIGNEDTEXT
  2
AcDbArcAlignedText
  3
ATEXT|AutoCAD Express Tool|expresstools@autodesk.com
 90
        0
280
           0
281
           1
  0
ENDSEC
  0
SECTION
  2
TABLES
  0
TABLE
  2
VPORT
  5
7
100
AcDbSymbolTable
 70
           1
  0
VPORT
  5
15
100
AcDbSymbolTableRecord
100
AcDbViewportTableRecord
  2
*ACTIVE
 70
           0
 10
0.0
 20
0.0
 11
1.0
 21
1.0
 12
6.591288
 22
4.579184
 13
0.0
 23
0.0
 14
1.0
 24
1.0
 15
0.0
 25
0.0
 16
0.0
 26
0.0
 36
1.0
 17
0.0
 27
0.0
 37
0.0
 40
9.158369
 41
0.688564
 42
50.0
 43
0.0
 44
0.0
 50
0.0
 51
0.0
 71
           0
 72
         100
 73
           1
 74
           1
 75
           0
 76
           0
 77
           0
 78
           0
  0
ENDTAB
  0
TABLE
  2
LTYPE
  5
4
100
AcDbSymbolTable
 70
           6
  0
LTYPE
  5
11
100
AcDbSymbolTableRecord
100
AcDbLinetypeTableRecord
  2
BYBLOCK
 70
          64
  3

 72
          65
 73
           0
 40
0.0
  0
LTYPE
  5
12
100
AcDbSymbolTableRecord
100
AcDbLinetypeTableRecord
  2
BYLAYER
 70
          64
  3

 72
          65
 73
           0
 40
0.0
  0
LTYPE
  5
13
100
AcDbSymbolTableRecord
100
AcDbLinetypeTableRecord
  2
CONTINUOUS
 70
          64
  3
Solid line
 72
          65
 73
           0
 40
0.0
  0
LTYPE
  5
1D
100
AcDbSymbolTableRecord
100
AcDbLinetypeTableRecord
  2
AUSGEZOGEN
 70
           0
  3

 72
          65
 73
           2
 40
0.5
 49
0.25
 74
           0
 49
-0.25
 74
           0
  0
LTYPE
  5
1E
100
AcDbSymbolTableRecord
100
AcDbLinetypeTableRecord
  2
STRICHLINIE
 70
           0
  3

 72
          65
 73
           2
 40
0.5
 49
0.25
 74
           0
 49
-0.25
 74
           0
  0
LTYPE
  5
1F
100
AcDbSymbolTableRecord
100
AcDbLinetypeTableRecord
  2
STRICHPUNKT
 70
           0
  3

 72
          65
 73
           4
 40
1.0
 49
0.5
 74
           0
 49
-0.25
 74
           0
 49
0.0
 74
           0
 49
-0.25
 74
           0
  0
ENDTAB
  0
TABLE
  2
LAYER
  5
2
100
AcDbSymbolTable
 70
           5
  0
LAYER
  5
14
100
AcDbSymbolTableRecord
100
AcDbLayerTableRecord
  2
0
 70
           0
 62
           7
  6
CONTINUOUS
  0
LAYER
  5
20
100
AcDbSymbolTableRecord
100
AcDbLayerTableRecord
  2
LC-008-003-----0
 70
           0
 62
           7
  6
CONTINUOUS
  0
LAYER
  5
21
100
AcDbSymbolTableRecord
100
AcDbLayerTableRecord
  2
LC-003-002-----0
 70
           0
 62
           7
  6
CONTINUOUS
  0
LAYER
  5
22
100
AcDbSymbolTableRecord
100
AcDbLayerTableRecord
  2
LC-007-004-----0
 70
           0
 62
           7
  6
CONTINUOUS
  0
LAYER
  5
23
100
AcDbSymbolTableRecord
100
AcDbLayerTableRecord
  2
LC-004-005-----0
 70
           0
 62
           7
  6
CONTINUOUS
  0
ENDTAB
  0
TABLE
  2
STYLE
  5
3
100
AcDbSymbolTable
 70
           1
  0
STYLE
  5
17
100
AcDbSymbolTableRecord
100
AcDbTextStyleTableRecord
  2
TXT
 70
           0
 40
3.5
 41
1.0
 50
0.0
 71
           0
 42
3.5
  3
TXT
  4

  0
ENDTAB
  0
TABLE
  2
VIEW
  5
5
100
AcDbSymbolTable
 70
           0
  0
ENDTAB
  0
TABLE
  2
UCS
  5
6
100
AcDbSymbolTable
 70
           0
  0
ENDTAB
  0
TABLE
  2
APPID
  5
8
100
AcDbSymbolTable
 70
           2
  0
APPID
  5
16
100
AcDbSymbolTableRecord
100
AcDbRegAppTableRecord
  2
ACAD
 70
           0
  0
APPID
  5
24
100
AcDbSymbolTableRecord
100
AcDbRegAppTableRecord
  2
MegaCADPntStyle
 70
           0
  0
ENDTAB
  0
TABLE
  2
DIMSTYLE
  5
9
100
AcDbSymbolTable
 70
           1
  0
DIMSTYLE
105
18
100
AcDbSymbolTableRecord
100
AcDbDimStyleTableRecord
  2
STANDARD
 70
           0
  3

  4

  5

  6

  7

 40
1.0
 41
0.18
 42
0.0625
 43
0.38
 44
0.18
 45
0.0
 46
0.0
 47
0.0
 48
0.0
 71
           0
 72
           0
 73
           1
 74
           1
 75
           0
 76
           0
 77
           0
 78
           0
140
0.18
141
0.09
142
0.0
143
25.4
144
1.0
145
0.0
146
1.0
147
0.09
170
           0
171
           2
172
           0
173
           0
174
           0
175
           0
176
           0
177
           0
178
           0
270
           2
271
           4
272
           4
273
           2
274
           2
275
           0
280
           0
281
           0
282
           0
283
           1
284
           0
285
           0
286
           0
287
           0
288
           0
340
17
  0
ENDTAB
  0
TABLE
  2
BLOCK_RECORD
  5
1
100
AcDbSymbolTable
 70
           1
  0
BLOCK_RECORD
  5
A
100
AcDbSymbolTableRecord
100
AcDbBlockTableRecord
  2
*MODEL_SPACE
  0
BLOCK_RECORD
  5
B
100
AcDbSymbolTableRecord
100
AcDbBlockTableRecord
  2
*PAPER_SPACE
  0
BLOCK_RECORD
  5
25
102
{ACAD_XDICTIONARY
360
8C
102
}
100
AcDbSymbolTableRecord
100
AcDbBlockTableRecord
  2
ELIPPSE
  0
ENDTAB
  0
ENDSEC
  0
SECTION
  2
BLOCKS
  0
BLOCK
  5
D
100
AcDbEntity
  8
0
100
AcDbBlockBegin
  2
*MODEL_SPACE
 70
           0
 10
0.0
 20
0.0
 30
0.0
  3
*MODEL_SPACE
  1

  0
ENDBLK
  5
E
100
AcDbEntity
  8
0
100
AcDbBlockEnd
  0
BLOCK
  5
F
100
AcDbEntity
 67
           1
  8
0
100
AcDbBlockBegin
  2
*PAPER_SPACE
 70
           0
 10
0.0
 20
0.0
 30
0.0
  3
*PAPER_SPACE
  1

  0
ENDBLK
  5
10
100
AcDbEntity
 67
           1
  8
0
100
AcDbBlockEnd
  0
BLOCK
  5
70
100
AcDbEntity
  8
0
100
AcDbBlockBegin
  2
ELIPPSE
 70
          64
 10
0.0
 20
0.0
 30
0.0
  3
ELIPPSE
  1

  0
CIRCLE
  5
71
100
AcDbEntity
  8
0
  6
BYBLOCK
 62
           0
100
AcDbCircle
 10
0.0
 20
0.0
 30
0.0
 40
1.0
  0
ENDBLK
  5
72
100
AcDbEntity
  8
0
  6
BYBLOCK
 62
           0
100
AcDbBlockEnd
  0
ENDSEC
  0
SECTION
  2
ENTITIES
  0
LINE
  5
26
100
AcDbEntity
  8
LC-008-003-----0
  6
AUSGEZOGEN
 62
           1
100
AcDbLine
 10
413.992157
 20
624.66571
 30
0.0
 11
411.492157
 21
619.304443
 31
0.0
  0
LINE
  5
27
100
AcDbEntity
  8
LC-008-003-----0
  6
AUSGEZOGEN
 62
           1
100
AcDbLine
 10
520.336731
 20
619.304443
 30
0.0
 11
620.336731
 21
619.304443
 31
0.0
  0
LINE
  5
28
100
AcDbEntity
  8
LC-008-003-----0
  6
AUSGEZOGEN
 62
           1
100
AcDbLine
 10
411.492157
 20
611.486755
 30
0.0
 11
401.992157
 21
591.113892
 31
0.0
  0
LINE
  5
29
100
AcDbEntity
  8
LC-008-003-----0
  6
AUSGEZOGEN
 62
           1
100
AcDbLine
 10
429.992157
 20
624.66571
 30
0.0
 11
432.492157
 21
619.304443
 31
0.0
  0
LINE
  5
2A
100
AcDbEntity
  8
LC-008-003-----0
  6
AUSGEZOGEN
 62
           1
100
AcDbLine
 10
520.336731
 20
611.486755
 30
0.0
 11
620.336731
 21
611.486755
 31
0.0
  0
LINE
  5
2B
100
AcDbEntity
  8
LC-008-003-----0
  6
AUSGEZOGEN
 62
           1
100
AcDbLine
 10
432.492157
 20
611.486755
 30
0.0
 11
441.992157
 21
591.113892
 31
0.0
  0
LINE
  5
2C
100
AcDbEntity
  8
LC-008-003-----0
  6
AUSGEZOGEN
 62
           1
100
AcDbLine
 10
432.492157
 20
611.486755
 30
0.0
 11
432.492157
 21
619.304443
 31
0.0
  0
LINE
  5
2D
100
AcDbEntity
  8
LC-008-003-----0
  6
AUSGEZOGEN
 62
           1
100
AcDbLine
 10
411.492157
 20
611.486755
 30
0.0
 11
411.492157
 21
619.304443
 31
0.0
  0
LINE
  5
2E
100
AcDbEntity
  8
LC-008-003-----0
  6
AUSGEZOGEN
 62
           1
100
AcDbLine
 10
382.992157
 20
583.113892
 30
0.0
 11
412.492157
 21
583.113892
 31
0.0
  0
LINE
  5
2F
100
AcDbEntity
  8
LC-008-003-----0
  6
AUSGEZOGEN
 62
           1
100
AcDbLine
 10
460.992157
 20
583.113892
 30
0.0
 11
460.992157
 21
591.113892
 31
0.0
  0
LINE
  5
30
100
AcDbEntity
  8
LC-008-003-----0
  6
AUSGEZOGEN
 62
           1
100
AcDbLine
 10
382.992157
 20
583.113892
 30
0.0
 11
382.992157
 21
591.113892
 31
0.0
  0
LINE
  5
31
100
AcDbEntity
  8
LC-008-003-----0
  6
AUSGEZOGEN
 62
           1
100
AcDbLine
 10
382.992157
 20
591.113892
 30
0.0
 11
393.738007
 21
591.113892
 31
0.0
  0
LINE
  5
32
100
AcDbEntity
  8
LC-003-002-----0
  6
STRICHPUNKT
 62
           2
100
AcDbLine
 10
421.992157
 20
579.912476
 30
0.0
 11
421.992157
 21
667.050598
 31
0.0
  0
LINE
  5
33
100
AcDbEntity
  8
LC-003-002-----0
  6
STRICHPUNKT
 62
           2
100
AcDbLine
 10
398.627258
 20
643.113892
 30
0.0
 11
444.907562
 21
643.113892
 31
0.0
  0
CIRCLE
  5
34
100
AcDbEntity
  8
LC-004-005-----0
  6
AUSGEZOGEN
 62
           2
100
AcDbCircle
 10
421.992157
 20
643.113892
 30
0.0
 40
20.0
  0
LINE
  5
35
100
AcDbEntity
  8
LC-008-003-----0
  6
AUSGEZOGEN
 62
           1
100
AcDbLine
 10
413.992157
 20
624.66571
 30
0.0
 11
421.992157
 21
622.143311
 31
0.0
  0
LINE
  5
36
100
AcDbEntity
  8
LC-008-003-----0
  6
AUSGEZOGEN
 62
           1
100
AcDbLine
 10
429.992157
 20
624.66571
 30
0.0
 11
421.992157
 21
622.143311
 31
0.0
  0
LINE
  5
37
100
AcDbEntity
  8
LC-008-003-----0
  6
AUSGEZOGEN
 62
           1
100
AcDbLine
 10
441.992157
 20
591.113892
 30
0.0
 11
448.742157
 21
591.113892
 31
0.0
  0
LINE
  5
38
100
AcDbEntity
  8
LC-008-003-----0
  6
AUSGEZOGEN
 62
           1
100
AcDbLine
 10
412.492157
 20
595.613892
 30
0.0
 11
431.492157
 21
595.613892
 31
0.0
  0
LINE
  5
39
100
AcDbEntity
  8
LC-008-003-----0
  6
AUSGEZOGEN
 62
           1
100
AcDbLine
 10
431.492157
 20
583.113892
 30
0.0
 11
431.492157
 21
595.613892
 31
0.0
  0
LINE
  5
3A
100
AcDbEntity
  8
LC-008-003-----0
  6
AUSGEZOGEN
 62
           1
100
AcDbLine
 10
412.492157
 20
583.113892
 30
0.0
 11
412.492157
 21
595.613892
 31
0.0
  0
LINE
  5
3B
100
AcDbEntity
  8
LC-008-003-----0
  6
AUSGEZOGEN
 62
           1
100
AcDbLine
 10
431.492157
 20
583.113892
 30
0.0
 11
460.992157
 21
583.113892
 31
0.0
  0
LINE
  5
3C
100
AcDbEntity
  8
LC-008-003-----0
  6
AUSGEZOGEN
 62
           1
100
AcDbLine
 10
620.336731
 20
624.66571
 30
0.0
 11
620.336731
 21
583.113892
 31
0.0
  0
LINE
  5
3D
100
AcDbEntity
  8
LC-004-005-----0
  6
AUSGEZOGEN
 62
           2
100
AcDbLine
 10
620.336731
 20
624.66571
 30
0.0
 11
620.336731
 21
663.113892
 31
0.0
  0
LINE
  5
3E
100
AcDbEntity
  8
LC-008-003-----0
  6
AUSGEZOGEN
 62
           1
100
AcDbLine
 10
520.336731
 20
583.113892
 30
0.0
 11
620.336731
 21
583.113892
 31
0.0
  0
LINE
  5
3F
100
AcDbEntity
  8
LC-008-003-----0
  6
AUSGEZOGEN
 62
           1
100
AcDbLine
 10
520.336731
 20
591.113892
 30
0.0
 11
620.336731
 21
591.113892
 31
0.0
  0
LINE
  5
40
100
AcDbEntity
  8
LC-007-004-----0
  6
STRICHLINIE
 62
           2
100
AcDbLine
 10
520.336731
 20
595.613892
 30
0.0
 11
620.336731
 21
595.613892
 31
0.0
  0
LINE
  5
41
100
AcDbEntity
  8
LC-007-004-----0
  6
STRICHLINIE
 62
           2
100
AcDbLine
 10
520.336731
 20
622.143311
 30
0.0
 11
620.336731
 21
622.392029
 31
0.0
  0
LINE
  5
42
100
AcDbEntity
  8
LC-008-003-----0
  6
AUSGEZOGEN
 62
           1
100
AcDbLine
 10
520.336731
 20
624.66571
 30
0.0
 11
620.336731
 21
624.66571
 31
0.0
  0
LINE
  5
43
100
AcDbEntity
  8
LC-004-005-----0
  6
AUSGEZOGEN
 62
           2
100
AcDbLine
 10
520.336731
 20
663.113892
 30
0.0
 11
620.336731
 21
663.113892
 31
0.0
  0
LINE
  5
44
100
AcDbEntity
  8
LC-003-002-----0
  6
STRICHPUNKT
 62
           2
100
AcDbLine
 10
515.009705
 20
643.113892
 30
0.0
 11
626.065125
 21
643.113892
 31
0.0
  0
LINE
  5
45
100
AcDbEntity
  8
LC-008-003-----0
  6
AUSGEZOGEN
 62
           1
100
AcDbLine
 10
448.742157
 20
591.113892
 30
0.0
 11
449.494232
 21
590.361816
 31
0.0
  0
LINE
  5
46
100
AcDbEntity
  8
LC-008-003-----0
  6
AUSGEZOGEN
 62
           1
100
AcDbLine
 10
449.494232
 20
590.361816
 30
0.0
 11
450.246307
 21
591.113892
 31
0.0
  0
LINE
  5
47
100
AcDbEntity
  8
LC-008-003-----0
  6
AUSGEZOGEN
 62
           1
100
AcDbLine
 10
395.242157
 20
591.113892
 30
0.0
 11
394.490082
 21
590.361816
 31
0.0
  0
LINE
  5
48
100
AcDbEntity
  8
LC-008-003-----0
  6
AUSGEZOGEN
 62
           1
100
AcDbLine
 10
394.490082
 20
590.361816
 30
0.0
 11
393.738007
 21
591.113892
 31
0.0
  0
LINE
  5
49
100
AcDbEntity
  8
LC-008-003-----0
  6
AUSGEZOGEN
 62
           1
100
AcDbLine
 10
395.242157
 20
591.113892
 30
0.0
 11
401.992157
 21
591.113892
 31
0.0
  0
LINE
  5
4A
100
AcDbEntity
  8
LC-008-003-----0
  6
AUSGEZOGEN
 62
           1
100
AcDbLine
 10
450.246307
 20
591.113892
 30
0.0
 11
460.992157
 21
591.113892
 31
0.0
  0
LINE
  5
4B
100
AcDbEntity
  8
LC-008-003-----0
  6
AUSGEZOGEN
 62
           1
100
AcDbLine
 10
382.992157
 20
431.526917
 30
0.0
 11
460.992157
 21
431.526917
 31
0.0
  0
LINE
  5
4C
100
AcDbEntity
  8
LC-003-002-----0
  6
STRICHPUNKT
 62
           2
100
AcDbLine
 10
421.992157
 20
530.0
 30
0.0
 11
421.992157
 21
426.957733
 31
0.0
  0
LINE
  5
4D
100
AcDbEntity
  8
LC-008-003-----0
  6
AUSGEZOGEN
 62
           1
100
AcDbLine
 10
460.992157
 20
521.526908397705
 30
0.0
 11
460.992157
 21
431.526917
 31
0.0
  0
LINE
  5
4E
100
AcDbEntity
  8
LC-008-003-----0
  6
AUSGEZOGEN
 62
           1
100
AcDbLine
 10
441.992157
 20
521.526917
 30
0.0
 11
441.992157
 21
431.526917
 31
0.0
  0
LINE
  5
4F
100
AcDbEntity
  8
LC-007-004-----0
  6
STRICHLINIE
 62
           2
100
AcDbLine
 10
431.492157
 20
521.526917
 30
0.0
 11
431.492157
 21
431.526917
 31
0.0
  0
LINE
  5
50
100
AcDbEntity
  8
LC-008-003-----0
  6
AUSGEZOGEN
 62
           1
100
AcDbLine
 10
432.492157
 20
521.526917
 30
0.0
 11
432.492157
 21
431.526917
 31
0.0
  0
LINE
  5
51
100
AcDbEntity
  8
LC-008-003-----0
  6
AUSGEZOGEN
 62
           1
100
AcDbLine
 10
429.992157
 20
521.526917
 30
0.0
 11
429.992157
 21
431.526917
 31
0.0
  0
LINE
  5
52
100
AcDbEntity
  8
LC-008-003-----0
  6
AUSGEZOGEN
 62
           1
100
AcDbLine
 10
413.992157
 20
521.526917
 30
0.0
 11
413.992157
 21
431.526917
 31
0.0
  0
LINE
  5
53
100
AcDbEntity
  8
LC-007-004-----0
  6
STRICHLINIE
 62
           2
100
AcDbLine
 10
412.492157
 20
521.526917
 30
0.0
 11
412.492157
 21
431.526917
 31
0.0
  0
LINE
  5
54
100
AcDbEntity
  8
LC-008-003-----0
  6
AUSGEZOGEN
 62
           1
100
AcDbLine
 10
411.492157
 20
521.526917
 30
0.0
 11
411.492157
 21
431.526917
 31
0.0
  0
LINE
  5
55
100
AcDbEntity
  8
LC-008-003-----0
  6
AUSGEZOGEN
 62
           1
100
AcDbLine
 10
401.992157
 20
521.526917
 30
0.0
 11
401.992157
 21
431.526917
 31
0.0
  0
LINE
  5
56
100
AcDbEntity
  8
LC-008-003-----0
  6
AUSGEZOGEN
 62
           1
100
AcDbLine
 10
382.992157
 20
521.526917
 30
0.0
 11
382.992157
 21
431.526917
 31
0.0
  0
LINE
  5
57
100
AcDbEntity
  8
LC-008-003-----0
  6
AUSGEZOGEN
 62
           1
100
AcDbLine
 10
421.992157
 20
521.391525074009
 30
0.0
 11
421.992157
 21
431.526917
 31
0.0
  0
LINE
  5
58
100
AcDbEntity
  8
LC-004-005-----0
  6
AUSGEZOGEN
 62
           2
100
AcDbLine
 10
520.336731
 20
663.113892
 30
0.0
 11
519.589191769844
 21
656.14910588026
 31
0.0
  0
LINE
  5
59
100
AcDbEntity
  8
LC-004-005-----0
  6
AUSGEZOGEN
 62
           2
100
AcDbLine
 10
519.589191769844
 20
656.14910588026
 30
0.0
 11
521.206652646893
 21
648.577634639935
 31
0.0
  0
LINE
  5
5A
100
AcDbEntity
  8
LC-004-005-----0
  6
AUSGEZOGEN
 62
           2
100
AcDbLine
 10
521.206652646893
 20
648.577634639935
 30
0.0
 11
519.319614957002
 21
638.302066528066
 31
0.0
  0
LINE
  5
5B
100
AcDbEntity
  8
LC-004-005-----0
  6
AUSGEZOGEN
 62
           2
100
AcDbLine
 10
519.319614957002
 20
638.302066528066
 30
0.0
 11
521.476229459735
 21
632.082643723514
 31
0.0
  0
LINE
  5
5C
100
AcDbEntity
  8
LC-004-005-----0
  6
AUSGEZOGEN
 62
           2
100
AcDbLine
 10
521.476229459735
 20
632.082643723514
 30
0.0
 11
520.336731
 21
624.66571
 31
0.0
  0
LINE
  5
5D
100
AcDbEntity
  8
LC-004-005-----0
  6
AUSGEZOGEN
 62
           2
100
AcDbLine
 10
520.336731
 20
624.66571
 30
0.0
 11
520.336731
 21
619.304443
 31
0.0
  0
LINE
  5
5E
100
AcDbEntity
  8
LC-004-005-----0
  6
AUSGEZOGEN
 62
           2
100
AcDbLine
 10
520.336731
 20
619.304443
 30
0.0
 11
521.476229459735
 21
614.77642374563
 31
0.0
  0
LINE
  5
5F
100
AcDbEntity
  8
LC-004-005-----0
  6
AUSGEZOGEN
 62
           2
100
AcDbLine
 10
521.476229459735
 20
614.77642374563
 30
0.0
 11
520.336731
 21
611.486755
 31
0.0
  0
LINE
  5
60
100
AcDbEntity
  8
LC-004-005-----0
  6
AUSGEZOGEN
 62
           2
100
AcDbLine
 10
520.336731
 20
611.486755
 30
0.0
 11
521.476229459735
 21
602.878397510834
 31
0.0
  0
LINE
  5
61
100
AcDbEntity
  8
LC-004-005-----0
  6
AUSGEZOGEN
 62
           2
100
AcDbLine
 10
521.476229459735
 20
602.878397510834
 30
0.0
 11
520.336731
 21
595.613892
 31
0.0
  0
LINE
  5
62
100
AcDbEntity
  8
LC-004-005-----0
  6
AUSGEZOGEN
 62
           2
100
AcDbLine
 10
520.336731
 20
595.613892
 30
0.0
 11
520.336731
 21
591.113892
 31
0.0
  0
LINE
  5
63
100
AcDbEntity
  8
LC-004-005-----0
  6
AUSGEZOGEN
 62
           2
100
AcDbLine
 10
520.336731
 20
591.113892
 30
0.0
 11
520.336731
 21
583.113892
 31
0.0
  0
LINE
  5
64
100
AcDbEntity
  8
LC-004-005-----0
  6
AUSGEZOGEN
 62
           2
100
AcDbLine
 10
382.992157
 20
521.526917
 30
0.0
 11
388.844437541694
 21
522.566720425964
 31
0.0
  0
LINE
  5
65
100
AcDbEntity
  8
LC-004-005-----0
  6
AUSGEZOGEN
 62
           2
100
AcDbLine
 10
388.844437541694
 20
522.566720425964
 30
0.0
 11
395.583857862733
 21
521.214671990192
 31
0.0
  0
LINE
  5
66
100
AcDbEntity
  8
LC-004-005-----0
  6
AUSGEZOGEN
 62
           2
100
AcDbLine
 10
395.583857862733
 20
521.214671990192
 30
0.0
 11
401.992157
 21
521.526917
 31
0.0
  0
LINE
  5
67
100
AcDbEntity
  8
LC-004-005-----0
  6
AUSGEZOGEN
 62
           2
100
AcDbLine
 10
401.992157
 20
521.526917
 30
0.0
 11
412.492157
 21
521.526917
 31
0.0
  0
LINE
  5
68
100
AcDbEntity
  8
LC-004-005-----0
  6
AUSGEZOGEN
 62
           2
100
AcDbLine
 10
412.492157
 20
521.526917
 30
0.0
 11
413.992157
 21
521.526917
 31
0.0
  0
LINE
  5
69
100
AcDbEntity
  8
LC-004-005-----0
  6
AUSGEZOGEN
 62
           2
100
AcDbLine
 10
413.992157
 20
521.526917
 30
0.0
 11
418.228310141422
 21
520.133033241574
 31
0.0
  0
LINE
  5
6A
100
AcDbEntity
  8
LC-004-005-----0
  6
AUSGEZOGEN
 62
           2
100
AcDbLine
 10
418.228310141422
 20
520.133033241574
 30
0.0
 11
425.506884088144
 21
522.566720425964
 31
0.0
  0
LINE
  5
6B
100
AcDbEntity
  8
LC-004-005-----0
  6
AUSGEZOGEN
 62
           2
100
AcDbLine
 10
425.506884088144
 20
522.566720425964
 30
0.0
 11
429.992157
 21
521.526917
 31
0.0
  0
LINE
  5
6C
100
AcDbEntity
  8
LC-004-005-----0
  6
AUSGEZOGEN
 62
           2
100
AcDbLine
 10
429.992157
 20
521.526917
 30
0.0
 11
441.992157
 21
521.526917
 31
0.0
  0
LINE
  5
6D
100
AcDbEntity
  8
LC-004-005-----0
  6
AUSGEZOGEN
 62
           2
100
AcDbLine
 10
441.992157
 20
521.526917
 30
0.0
 11
448.690489992517
 21
522.566720425964
 31
0.0
  0
LINE
  5
6E
100
AcDbEntity
  8
LC-004-005-----0
  6
AUSGEZOGEN
 62
           2
100
AcDbLine
 10
448.690489992517
 20
522.566720425964
 30
0.0
 11
455.969063939239
 21
520.133033241574
 31
0.0
  0
LINE
  5
6F
100
AcDbEntity
  8
LC-004-005-----0
  6
AUSGEZOGEN
 62
           2
100
AcDbLine
 10
455.969063939239
 20
520.133033241574
 30
0.0
 11
460.992188
 21
521.526917
 31
0.0
  0
ENDSEC
  0
SECTION
  2
OBJECTS
  0
DICTIONARY
  5
19
100
AcDbDictionary
  3
ACAD_GROUP
350
1A
  3
ACAD_MLINESTYLE
350
1B
  0
DICTIONARY
  5
1A
102
{ACAD_REACTORS
330
19
102
}
100
AcDbDictionary
  0
DICTIONARY
  5
1B
102
{ACAD_REACTORS
330
19
102
}
100
AcDbDictionary
  3
STANDARD
350
1C
  0
MLINESTYLE
  5
1C
102
{ACAD_REACTORS
330
1B
102
}
100
AcDbMlineStyle
  2
STANDARD
 70
           0
  3

 62
           0
 51
90.0
 52
90.0
 71
           2
 49
0.5
 62
         256
  6
BYLAYER
 49
-0.5
 62
         256
  6
BYLAYER
  0
ENDSEC
  0
EOF
