  0
SECTION
  2
HEADER
  9
$LIMMIN
 10
96.549011
 20
427.687195
  9
$LIMMAX
 10
335.460144
 20
494.263580
  9
$EXTMIN
 10
96.549011
 20
427.687195
  9
$EXTMAX
 10
335.460144
 20
494.263580
  0
ENDSEC
  0
SECTION
  2
TABLES
  0
TABLE
  2
LTYPE
 70
     4
  0
LTYPE
  2
CONTINUOUS
 70
    64
  3
Ausgezogene Linie
 72
    65
 73
     0
 40
0.0
  0
LTYPE
  2
DASHED
 70
    64
  3
__ __ __ __ __ __ __ __ __ __ __ __ __ __ __
 72
    65
 73
     2
 40
0.75
 49
0.5
 49
-0.25
  0
LTYPE
  2
DASHDOT
 70
    64
  3
__ . __ . __ . __ . __ . __ . __ . __ . __ . __
 72
    65
 73
     4
 40
1.0
 49
0.5
 49
-0.25
 49
0.0
 49
-0.25
  0
LTYPE
  2
DIVIDE
 70
    64
  3
__ . . __ . . __ . . __ . . __ . . __ . . __
 72
    65
 73
     6
 40
1.25
 49
0.5
 49
-0.25
 49
0.0
 49
-0.25
 49
0.0
 49
-0.25
  0
ENDTAB
  0
TABLE
  2
LAYER
 70
     4
  0
LAYER
  2
LC-003-002-----0
 70
    64
 62
     7
  6
CONTINUOUS
  0
LAYER
  2
LC-004-006-----0
 70
    64
 62
     7
  6
CONTINUOUS
  0
LAYER
  2
LC-006-012-----0
 70
    64
 62
     7
  6
CONTINUOUS
  0
LAYER
  2
LC-008-003-----0
 70
    64
 62
     7
  6
CONTINUOUS
  0
ENDTAB
  0
TABLE
  2
STYLE
 70
     1
  0
STYLE
  2
TXT8
 70
    64
 40
0.0
 41
1.0
 50
0.0
 71
     0
 42
3.500000
  3
TXT8
  4

  0
ENDTAB
  0
ENDSEC
  0
SECTION
  2
BLOCKS
  0
ENDSEC
  0
SECTION
  2
ENTITIES
  0
LINE
  8
LC-003-002-----0
 62
     1
  6
CONTINUOUS
 10
100.901245
 20
430.353760
 11
115.901245
 21
430.353760
  0
LINE
  8
LC-003-002-----0
 62
     1
  6
CONTINUOUS
 10
115.901245
 20
430.353760
 11
115.901245
 21
466.269958
  0
LINE
  8
LC-003-002-----0
 62
     1
  6
CONTINUOUS
 10
100.901245
 20
430.353760
 11
100.901245
 21
466.269958
  0
LINE
  8
LC-004-006-----0
 62
     2
  6
DASHDOT
 10
96.549011
 20
482.353760
 11
120.027283
 21
482.353760
  0
LINE
  8
LC-004-006-----0
 62
     2
  6
DASHDOT
 10
98.028717
 20
438.353760
 11
118.251343
 21
438.353760
  0
CIRCLE
  8
LC-008-003-----0
 62
     2
  6
DIVIDE
 10
108.401245
 20
482.353760
 40
10.000000
  0
LINE
  8
LC-003-002-----0
 62
     1
  6
CONTINUOUS
 10
104.175079
 20
473.290680
 11
100.901245
 21
466.269958
  0
LINE
  8
LC-003-002-----0
 62
     1
  6
CONTINUOUS
 10
112.627441
 20
473.290680
 11
115.901245
 21
466.269958
  0
LINE
  8
LC-003-002-----0
 62
     1
  6
CONTINUOUS
 10
104.175079
 20
473.290680
 11
108.401245
 21
471.958160
  0
LINE
  8
LC-003-002-----0
 62
     1
  6
CONTINUOUS
 10
112.627441
 20
473.290680
 11
108.401245
 21
471.958160
  0
LINE
  8
LC-004-006-----0
 62
     2
  6
DASHDOT
 10
108.401245
 20
494.263580
 11
108.401245
 21
427.687225
  0
LINE
  8
LC-006-012-----0
 62
     2
  6
DASHED
 10
102.901245
 20
438.853760
 11
102.901245
 21
430.353760
  0
LINE
  8
LC-006-012-----0
 62
     2
  6
DASHED
 10
113.901245
 20
438.853760
 11
113.901245
 21
430.353760
  0
LINE
  8
LC-006-012-----0
 62
     2
  6
DASHED
 10
102.901245
 20
438.853760
 11
113.901245
 21
438.853760
  0
LINE
  8
LC-006-012-----0
 62
     2
  6
DASHED
 10
104.901245
 20
472.986237
 11
104.901245
 21
438.853760
  0
LINE
  8
LC-006-012-----0
 62
     2
  6
DASHED
 10
111.901245
 20
473.061707
 11
111.901245
 21
438.853760
  0
LINE
  8
LC-006-012-----0
 62
     2
  6
DASHED
 10
109.401245
 20
443.853760
 11
100.901245
 21
443.853760
  0
LINE
  8
LC-006-012-----0
 62
     2
  6
DASHED
 10
109.401245
 20
432.853760
 11
100.901245
 21
432.853760
  0
LINE
  8
LC-006-012-----0
 62
     2
  6
DASHED
 10
109.401245
 20
443.853760
 11
109.401245
 21
432.853760
  0
LINE
  8
LC-006-012-----0
 62
     2
  6
DASHED
 10
115.901245
 20
441.853760
 11
109.401245
 21
441.853760
  0
LINE
  8
LC-006-012-----0
 62
     2
  6
DASHED
 10
115.901245
 20
434.853760
 11
109.401245
 21
434.853760
  0
LINE
  8
LC-006-012-----0
 62
     2
  6
DASHED
 10
109.401245
 20
457.853760
 11
100.901245
 21
457.853760
  0
LINE
  8
LC-006-012-----0
 62
     2
  6
DASHED
 10
109.401245
 20
457.853760
 11
109.401245
 21
446.853760
  0
LINE
  8
LC-006-012-----0
 62
     2
  6
DASHED
 10
115.901245
 20
455.853760
 11
109.401245
 21
455.853760
  0
LINE
  8
LC-006-012-----0
 62
     2
  6
DASHED
 10
115.901245
 20
448.853760
 11
109.401245
 21
448.853760
  0
LINE
  8
LC-006-012-----0
 62
     2
  6
DASHED
 10
109.401245
 20
446.853760
 11
100.901245
 21
446.853760
  0
LINE
  8
LC-004-006-----0
 62
     2
  6
DASHDOT
 10
98.028717
 20
452.353760
 11
118.251343
 21
452.353760
  0
LINE
  8
LC-003-002-----0
 62
     1
  6
CONTINUOUS
 10
185.460144
 20
430.353760
 11
335.460144
 21
430.353760
  0
LINE
  8
LC-003-002-----0
 62
     1
  6
CONTINUOUS
 10
185.460144
 20
473.290680
 11
335.460144
 21
473.290680
  0
LINE
  8
LC-003-002-----0
 62
     1
  6
CONTINUOUS
 10
185.460144
 20
430.353760
 11
185.460144
 21
473.290680
  0
LINE
  8
LC-006-012-----0
 62
     2
  6
DASHED
 10
303.460144
 20
438.853760
 11
303.460144
 21
430.353760
  0
LINE
  8
LC-006-012-----0
 62
     2
  6
DASHED
 10
228.460144
 20
438.853760
 11
228.460144
 21
430.353760
  0
LINE
  8
LC-006-012-----0
 62
     2
  6
DASHED
 10
217.460144
 20
438.853760
 11
217.460144
 21
430.353760
  0
LINE
  8
LC-006-012-----0
 62
     2
  6
DASHED
 10
217.460144
 20
438.853760
 11
228.460144
 21
438.853760
  0
LINE
  8
LC-006-012-----0
 62
     2
  6
DASHED
 10
219.460144
 20
473.290680
 11
219.460144
 21
438.853760
  0
LINE
  8
LC-006-012-----0
 62
     2
  6
DASHED
 10
226.460144
 20
473.290680
 11
226.460144
 21
438.853760
  0
LINE
  8
LC-004-006-----0
 62
     2
  6
DASHDOT
 10
222.960144
 20
477.538727
 11
222.960144
 21
427.687195
  0
LINE
  8
LC-006-012-----0
 62
     2
  6
DASHED
 10
292.460144
 20
438.853760
 11
292.460144
 21
430.353760
  0
LINE
  8
LC-006-012-----0
 62
     2
  6
DASHED
 10
292.460144
 20
438.853760
 11
303.460144
 21
438.853760
  0
LINE
  8
LC-006-012-----0
 62
     2
  6
DASHED
 10
294.460144
 20
473.290680
 11
294.460144
 21
438.853760
  0
LINE
  8
LC-006-012-----0
 62
     2
  6
DASHED
 10
301.460144
 20
473.290680
 11
301.460144
 21
438.853760
  0
LINE
  8
LC-004-006-----0
 62
     2
  6
DASHDOT
 10
297.960144
 20
477.538727
 11
297.960144
 21
427.687195
  0
LINE
  8
LC-004-006-----0
 62
     2
  6
DASHDOT
 10
196.885437
 20
438.353760
 11
212.043671
 21
438.353760
  0
LINE
  8
LC-004-006-----0
 62
     2
  6
DASHDOT
 10
204.210144
 20
431.786316
 11
204.210144
 21
446.423615
  0
CIRCLE
  8
LC-003-002-----0
 62
     1
  6
CONTINUOUS
 10
204.210144
 20
438.353760
 40
5.500000
  0
CIRCLE
  8
LC-003-002-----0
 62
     1
  6
CONTINUOUS
 10
204.210144
 20
438.353760
 40
3.500000
  0
LINE
  8
LC-004-006-----0
 62
     2
  6
DASHDOT
 10
235.103424
 20
452.353760
 11
248.891663
 21
452.353760
  0
LINE
  8
LC-004-006-----0
 62
     2
  6
DASHDOT
 10
241.710144
 20
445.302277
 11
241.710144
 21
459.436981
  0
CIRCLE
  8
LC-003-002-----0
 62
     1
  6
CONTINUOUS
 10
241.710144
 20
452.353760
 40
5.500000
  0
CIRCLE
  8
LC-003-002-----0
 62
     1
  6
CONTINUOUS
 10
241.710144
 20
452.353760
 40
3.500000
  0
LINE
  8
LC-004-006-----0
 62
     2
  6
DASHDOT
 10
271.885437
 20
438.353760
 11
287.043671
 21
438.353760
  0
LINE
  8
LC-004-006-----0
 62
     2
  6
DASHDOT
 10
279.210144
 20
431.786316
 11
279.210144
 21
446.423615
  0
CIRCLE
  8
LC-003-002-----0
 62
     1
  6
CONTINUOUS
 10
279.210144
 20
438.353760
 40
5.500000
  0
CIRCLE
  8
LC-003-002-----0
 62
     1
  6
CONTINUOUS
 10
279.210144
 20
438.353760
 40
3.500000
  0
LINE
  8
LC-004-006-----0
 62
     2
  6
DASHDOT
 10
310.103424
 20
452.353760
 11
323.891663
 21
452.353760
  0
LINE
  8
LC-004-006-----0
 62
     2
  6
DASHDOT
 10
316.710144
 20
445.302277
 11
316.710144
 21
459.436981
  0
CIRCLE
  8
LC-003-002-----0
 62
     1
  6
CONTINUOUS
 10
316.710144
 20
452.353760
 40
5.500000
  0
CIRCLE
  8
LC-003-002-----0
 62
     1
  6
CONTINUOUS
 10
316.710144
 20
452.353760
 40
3.500000
  0
LINE
  8
LC-006-012-----0
 62
     2
  6
DASHED
 10
185.460144
 20
471.958160
 11
219.460144
 21
471.958160
  0
LINE
  8
LC-003-002-----0
 62
     1
  6
CONTINUOUS
 10
185.460144
 20
466.269958
 11
335.460144
 21
466.269958
  0
LINE
  8
LC-006-012-----0
 62
     2
  6
DASHED
 10
226.460144
 20
471.958160
 11
294.460144
 21
471.958160
  0
LINE
  8
LC-006-012-----0
 62
     2
  6
DASHED
 10
301.460144
 20
471.958160
 11
335.460144
 21
471.958160
  0
LINE
  8
LC-003-002-----0
 62
     1
  6
CONTINUOUS
 10
335.460144
 20
430.353760
 11
335.460144
 21
473.290680
  0
ENDSEC
  0
EOF
