  0
SECTION
  2
HEADER
  9
$LIMMIN
 10
396.996490
 20
404.751953
  9
$LIMMAX
 10
690.460144
 20
500.761475
  9
$EXTMIN
 10
396.996490
 20
404.751953
  9
$EXTMAX
 10
690.460144
 20
500.761475
  0
ENDSEC
  0
SECTION
  2
TABLES
  0
TABLE
  2
LTYPE
 70
     4
  0
LTYPE
  2
CONTINUOUS
 70
    64
  3
Ausgezogene Linie
 72
    65
 73
     0
 40
0.0
  0
LTYPE
  2
DASHED
 70
    64
  3
__ __ __ __ __ __ __ __ __ __ __ __ __ __ __
 72
    65
 73
     2
 40
0.75
 49
0.5
 49
-0.25
  0
LTYPE
  2
DASHDOT
 70
    64
  3
__ . __ . __ . __ . __ . __ . __ . __ . __ . __
 72
    65
 73
     4
 40
1.0
 49
0.5
 49
-0.25
 49
0.0
 49
-0.25
  0
LTYPE
  2
DIVIDE
 70
    64
  3
__ . . __ . . __ . . __ . . __ . . __ . . __
 72
    65
 73
     6
 40
1.25
 49
0.5
 49
-0.25
 49
0.0
 49
-0.25
 49
0.0
 49
-0.25
  0
ENDTAB
  0
TABLE
  2
LAYER
 70
     4
  0
LAYER
  2
LC-003-002-----0
 70
    64
 62
     7
  6
CONTINUOUS
  0
LAYER
  2
LC-004-006-----0
 70
    64
 62
     7
  6
CONTINUOUS
  0
LAYER
  2
LC-006-012-----0
 70
    64
 62
     7
  6
CONTINUOUS
  0
LAYER
  2
LC-008-003-----0
 70
    64
 62
     7
  6
CONTINUOUS
  0
ENDTAB
  0
TABLE
  2
STYLE
 70
     1
  0
STYLE
  2
TXT8
 70
    64
 40
0.0
 41
1.0
 50
0.0
 71
     0
 42
3.500000
  3
TXT8
  4

  0
ENDTAB
  0
ENDSEC
  0
SECTION
  2
BLOCKS
  0
ENDSEC
  0
SECTION
  2
ENTITIES
  0
LINE
  8
LC-003-002-----0
 62
     1
  6
CONTINUOUS
 10
427.901245
 20
410.505402
 11
427.901245
 21
455.699066
  0
LINE
  8
LC-003-002-----0
 62
     1
  6
CONTINUOUS
 10
402.901245
 20
410.505402
 11
427.901245
 21
410.505402
  0
LINE
  8
LC-003-002-----0
 62
     1
  6
CONTINUOUS
 10
402.901245
 20
410.505402
 11
402.901245
 21
455.699066
  0
LINE
  8
LC-004-006-----0
 62
     2
  6
DASHDOT
 10
396.996490
 20
482.505402
 11
433.176636
 21
482.505402
  0
LINE
  8
LC-004-006-----0
 62
     2
  6
DASHDOT
 10
415.401245
 20
404.751953
 11
415.401245
 21
500.761475
  0
CIRCLE
  8
LC-008-003-----0
 62
     2
  6
DIVIDE
 10
415.401245
 20
482.505402
 40
15.000000
  0
LINE
  8
LC-003-002-----0
 62
     1
  6
CONTINUOUS
 10
409.061981
 20
468.910797
 11
402.901245
 21
455.699066
  0
LINE
  8
LC-003-002-----0
 62
     1
  6
CONTINUOUS
 10
421.740540
 20
468.910797
 11
427.901245
 21
455.699066
  0
LINE
  8
LC-003-002-----0
 62
     1
  6
CONTINUOUS
 10
409.061981
 20
468.910797
 11
415.401245
 21
466.912018
  0
LINE
  8
LC-003-002-----0
 62
     1
  6
CONTINUOUS
 10
421.740540
 20
468.910797
 11
415.401245
 21
466.912018
  0
LINE
  8
LC-006-012-----0
 62
     2
  6
DASHED
 10
406.401245
 20
410.505402
 11
406.401245
 21
425.005402
  0
LINE
  8
LC-006-012-----0
 62
     2
  6
DASHED
 10
424.401245
 20
410.505402
 11
424.401245
 21
425.005402
  0
LINE
  8
LC-006-012-----0
 62
     2
  6
DASHED
 10
406.401245
 20
425.005402
 11
424.401245
 21
425.005402
  0
LINE
  8
LC-006-012-----0
 62
     2
  6
DASHED
 10
409.901245
 20
425.005402
 11
409.901245
 21
468.550140
  0
LINE
  8
LC-006-012-----0
 62
     2
  6
DASHED
 10
420.901245
 20
425.005402
 11
420.901245
 21
468.550140
  0
LINE
  8
LC-004-006-----0
 62
     2
  6
DASHDOT
 10
399.590515
 20
422.505402
 11
431.797913
 21
422.505402
  0
LINE
  8
LC-006-012-----0
 62
     2
  6
DASHED
 10
402.901245
 20
431.505402
 11
416.401245
 21
431.505402
  0
LINE
  8
LC-006-012-----0
 62
     2
  6
DASHED
 10
402.901245
 20
413.505402
 11
416.401245
 21
413.505402
  0
LINE
  8
LC-006-012-----0
 62
     2
  6
DASHED
 10
416.401245
 20
413.505402
 11
416.401245
 21
431.505402
  0
LINE
  8
LC-006-012-----0
 62
     2
  6
DASHED
 10
416.401245
 20
428.005402
 11
427.901245
 21
428.005402
  0
LINE
  8
LC-006-012-----0
 62
     2
  6
DASHED
 10
416.401245
 20
417.005402
 11
427.901245
 21
417.005402
  0
LINE
  8
LC-006-012-----0
 62
     2
  6
DASHED
 10
402.901245
 20
449.505402
 11
416.401245
 21
449.505402
  0
LINE
  8
LC-006-012-----0
 62
     2
  6
DASHED
 10
416.401245
 20
446.005402
 11
427.901245
 21
446.005402
  0
LINE
  8
LC-006-012-----0
 62
     2
  6
DASHED
 10
416.401245
 20
431.505402
 11
416.401245
 21
449.505402
  0
LINE
  8
LC-004-006-----0
 62
     2
  6
DASHDOT
 10
399.590515
 20
440.505402
 11
431.797913
 21
440.505402
  0
LINE
  8
LC-006-012-----0
 62
     2
  6
DASHED
 10
416.401245
 20
435.005402
 11
427.901245
 21
435.005402
  0
LINE
  8
LC-006-012-----0
 62
     2
  6
DASHED
 10
402.901245
 20
431.505402
 11
416.401245
 21
431.505402
  0
LINE
  8
LC-003-002-----0
 62
     1
  6
CONTINUOUS
 10
490.460144
 20
410.505402
 11
490.460144
 21
468.910797
  0
LINE
  8
LC-003-002-----0
 62
     1
  6
CONTINUOUS
 10
490.460144
 20
410.505402
 11
690.460144
 21
410.505402
  0
LINE
  8
LC-003-002-----0
 62
     1
  6
CONTINUOUS
 10
490.460144
 20
468.910797
 11
690.460144
 21
468.910797
  0
LINE
  8
LC-003-002-----0
 62
     1
  6
CONTINUOUS
 10
490.460144
 20
455.699066
 11
690.460144
 21
455.699066
  0
LINE
  8
LC-006-012-----0
 62
     2
  6
DASHED
 10
490.460144
 20
466.912018
 11
534.960144
 21
466.912018
  0
LINE
  8
LC-006-012-----0
 62
     2
  6
DASHED
 10
634.960144
 20
425.005402
 11
634.960144
 21
468.910797
  0
LINE
  8
LC-006-012-----0
 62
     2
  6
DASHED
 10
534.960144
 20
425.005402
 11
534.960144
 21
468.910797
  0
LINE
  8
LC-004-006-----0
 62
     2
  6
DASHDOT
 10
540.460144
 20
404.751953
 11
540.460144
 21
475.903992
  0
LINE
  8
LC-006-012-----0
 62
     2
  6
DASHED
 10
545.960144
 20
425.005402
 11
545.960144
 21
468.910797
  0
LINE
  8
LC-006-012-----0
 62
     2
  6
DASHED
 10
549.460144
 20
410.505402
 11
549.460144
 21
425.005402
  0
LINE
  8
LC-006-012-----0
 62
     2
  6
DASHED
 10
531.460144
 20
410.505402
 11
531.460144
 21
425.005402
  0
LINE
  8
LC-006-012-----0
 62
     2
  6
DASHED
 10
531.460144
 20
425.005402
 11
549.460144
 21
425.005402
  0
LINE
  8
LC-004-006-----0
 62
     2
  6
DASHDOT
 10
640.460144
 20
404.751953
 11
640.460144
 21
475.903992
  0
LINE
  8
LC-006-012-----0
 62
     2
  6
DASHED
 10
645.960144
 20
425.005402
 11
645.960144
 21
468.910797
  0
LINE
  8
LC-006-012-----0
 62
     2
  6
DASHED
 10
649.460144
 20
410.505402
 11
649.460144
 21
425.005402
  0
LINE
  8
LC-006-012-----0
 62
     2
  6
DASHED
 10
631.460144
 20
410.505402
 11
631.460144
 21
425.005402
  0
LINE
  8
LC-006-012-----0
 62
     2
  6
DASHED
 10
631.460144
 20
425.005402
 11
649.460144
 21
425.005402
  0
LINE
  8
LC-004-006-----0
 62
     2
  6
DASHDOT
 10
503.625244
 20
422.505402
 11
528.225037
 21
422.505402
  0
LINE
  8
LC-004-006-----0
 62
     2
  6
DASHDOT
 10
515.460144
 20
411.479034
 11
515.460144
 21
433.869415
  0
CIRCLE
  8
LC-003-002-----0
 62
     1
  6
CONTINUOUS
 10
515.460144
 20
422.505402
 40
5.500000
  0
CIRCLE
  8
LC-003-002-----0
 62
     1
  6
CONTINUOUS
 10
515.460144
 20
422.505402
 40
9.000000
  0
LINE
  8
LC-004-006-----0
 62
     2
  6
DASHDOT
 10
553.032104
 20
440.505402
 11
578.253906
 21
440.505402
  0
LINE
  8
LC-004-006-----0
 62
     2
  6
DASHDOT
 10
565.460144
 20
428.101715
 11
565.460144
 21
452.177032
  0
CIRCLE
  8
LC-003-002-----0
 62
     1
  6
CONTINUOUS
 10
565.460144
 20
440.505402
 40
5.500000
  0
CIRCLE
  8
LC-003-002-----0
 62
     1
  6
CONTINUOUS
 10
565.460144
 20
440.505402
 40
9.000000
  0
LINE
  8
LC-004-006-----0
 62
     2
  6
DASHDOT
 10
653.032104
 20
440.505402
 11
678.253906
 21
440.505402
  0
LINE
  8
LC-004-006-----0
 62
     2
  6
DASHDOT
 10
665.460144
 20
428.101715
 11
665.460144
 21
452.177032
  0
CIRCLE
  8
LC-003-002-----0
 62
     1
  6
CONTINUOUS
 10
665.460144
 20
440.505402
 40
5.500000
  0
CIRCLE
  8
LC-003-002-----0
 62
     1
  6
CONTINUOUS
 10
665.460144
 20
440.505402
 40
9.000000
  0
LINE
  8
LC-004-006-----0
 62
     2
  6
DASHDOT
 10
603.625244
 20
422.505402
 11
628.225037
 21
422.505402
  0
LINE
  8
LC-004-006-----0
 62
     2
  6
DASHDOT
 10
615.460144
 20
411.479034
 11
615.460144
 21
433.869415
  0
CIRCLE
  8
LC-003-002-----0
 62
     1
  6
CONTINUOUS
 10
615.460144
 20
422.505402
 40
5.500000
  0
CIRCLE
  8
LC-003-002-----0
 62
     1
  6
CONTINUOUS
 10
615.460144
 20
422.505402
 40
9.000000
  0
LINE
  8
LC-006-012-----0
 62
     2
  6
DASHED
 10
645.960144
 20
466.912018
 11
690.460144
 21
466.912018
  0
LINE
  8
LC-006-012-----0
 62
     2
  6
DASHED
 10
545.960144
 20
466.912018
 11
634.960144
 21
466.912018
  0
LINE
  8
LC-003-002-----0
 62
     1
  6
CONTINUOUS
 10
690.460144
 20
410.505402
 11
690.460144
 21
468.910797
  0
ENDSEC
  0
EOF
