  0
SECTION
  2
HEADER
  9
$LIMMIN
 10
396.996460
 20
424.751953
  9
$LIMMAX
 10
630.460144
 20
520.761475
  9
$EXTMIN
 10
396.996460
 20
424.751953
  9
$EXTMAX
 10
630.460144
 20
520.761475
  0
ENDSEC
  0
SECTION
  2
TABLES
  0
TABLE
  2
LTYPE
 70
     4
  0
LTYPE
  2
CONTINUOUS
 70
    64
  3
Ausgezogene Linie
 72
    65
 73
     0
 40
0.0
  0
LTYPE
  2
DASHED
 70
    64
  3
__ __ __ __ __ __ __ __ __ __ __ __ __ __ __
 72
    65
 73
     2
 40
0.75
 49
0.5
 49
-0.25
  0
LTYPE
  2
DASHDOT
 70
    64
  3
__ . __ . __ . __ . __ . __ . __ . __ . __ . __
 72
    65
 73
     4
 40
1.0
 49
0.5
 49
-0.25
 49
0.0
 49
-0.25
  0
LTYPE
  2
DIVIDE
 70
    64
  3
__ . . __ . . __ . . __ . . __ . . __ . . __
 72
    65
 73
     6
 40
1.25
 49
0.5
 49
-0.25
 49
0.0
 49
-0.25
 49
0.0
 49
-0.25
  0
ENDTAB
  0
TABLE
  2
LAYER
 70
     4
  0
LAYER
  2
LC-003-002-----0
 70
    64
 62
     7
  6
CONTINUOUS
  0
LAYER
  2
LC-004-006-----0
 70
    64
 62
     7
  6
CONTINUOUS
  0
LAYER
  2
LC-006-012-----0
 70
    64
 62
     7
  6
CONTINUOUS
  0
LAYER
  2
LC-008-003-----0
 70
    64
 62
     7
  6
CONTINUOUS
  0
ENDTAB
  0
TABLE
  2
STYLE
 70
     1
  0
STYLE
  2
TXT8
 70
    64
 40
0.0
 41
1.0
 50
0.0
 71
     0
 42
3.500000
  3
TXT8
  4

  0
ENDTAB
  0
ENDSEC
  0
SECTION
  2
BLOCKS
  0
ENDSEC
  0
SECTION
  2
ENTITIES
  0
LINE
  8
LC-004-006-----0
 62
     2
  6
DASHDOT
 10
581.125244
 20
451.505402
 11
607.414734
 21
451.505402
  0
LINE
  8
LC-004-006-----0
 62
     2
  6
DASHDOT
 10
592.960144
 20
440.479034
 11
592.960144
 21
462.869415
  0
CIRCLE
  8
LC-003-002-----0
 62
     1
  6
CONTINUOUS
 10
592.960144
 20
451.505402
 40
5.500000
  0
CIRCLE
  8
LC-003-002-----0
 62
     1
  6
CONTINUOUS
 10
592.960144
 20
451.505402
 40
9.000000
  0
LINE
  8
LC-003-002-----0
 62
     1
  6
CONTINUOUS
 10
427.901245
 20
430.505402
 11
427.901245
 21
475.699066
  0
LINE
  8
LC-003-002-----0
 62
     1
  6
CONTINUOUS
 10
402.901245
 20
430.505402
 11
427.901245
 21
430.505402
  0
LINE
  8
LC-003-002-----0
 62
     1
  6
CONTINUOUS
 10
402.901245
 20
430.505402
 11
402.901245
 21
475.699066
  0
LINE
  8
LC-004-006-----0
 62
     2
  6
DASHDOT
 10
396.996460
 20
502.505402
 11
433.176666
 21
502.505402
  0
LINE
  8
LC-004-006-----0
 62
     2
  6
DASHDOT
 10
415.401245
 20
424.751953
 11
415.401245
 21
520.761475
  0
CIRCLE
  8
LC-008-003-----0
 62
     2
  6
DIVIDE
 10
415.401245
 20
502.505402
 40
15.000000
  0
LINE
  8
LC-003-002-----0
 62
     1
  6
CONTINUOUS
 10
409.061981
 20
488.910797
 11
402.901245
 21
475.699066
  0
LINE
  8
LC-003-002-----0
 62
     1
  6
CONTINUOUS
 10
421.740540
 20
488.910797
 11
427.901245
 21
475.699066
  0
LINE
  8
LC-003-002-----0
 62
     1
  6
CONTINUOUS
 10
409.061981
 20
488.910797
 11
415.401245
 21
486.912018
  0
LINE
  8
LC-003-002-----0
 62
     1
  6
CONTINUOUS
 10
421.740540
 20
488.910797
 11
415.401245
 21
486.912018
  0
LINE
  8
LC-006-012-----0
 62
     2
  6
DASHED
 10
406.401245
 20
430.505402
 11
406.401245
 21
445.005402
  0
LINE
  8
LC-006-012-----0
 62
     2
  6
DASHED
 10
424.401245
 20
430.505402
 11
424.401245
 21
445.005402
  0
LINE
  8
LC-006-012-----0
 62
     2
  6
DASHED
 10
406.401245
 20
445.005402
 11
424.401245
 21
445.005402
  0
LINE
  8
LC-006-012-----0
 62
     2
  6
DASHED
 10
409.901245
 20
445.005402
 11
409.901245
 21
488.550140
  0
LINE
  8
LC-006-012-----0
 62
     2
  6
DASHED
 10
420.901245
 20
445.005402
 11
420.901245
 21
488.550140
  0
LINE
  8
LC-004-006-----0
 62
     2
  6
DASHDOT
 10
399.590515
 20
451.505402
 11
431.797913
 21
451.505402
  0
LINE
  8
LC-006-012-----0
 62
     2
  6
DASHED
 10
402.901245
 20
442.505402
 11
416.401245
 21
442.505402
  0
LINE
  8
LC-006-012-----0
 62
     2
  6
DASHED
 10
416.401245
 20
442.505402
 11
416.401245
 21
460.505402
  0
LINE
  8
LC-006-012-----0
 62
     2
  6
DASHED
 10
416.401245
 20
457.005402
 11
427.901245
 21
457.005402
  0
LINE
  8
LC-006-012-----0
 62
     2
  6
DASHED
 10
416.401245
 20
446.005402
 11
427.901245
 21
446.005402
  0
LINE
  8
LC-006-012-----0
 62
     2
  6
DASHED
 10
402.901245
 20
460.505402
 11
416.401245
 21
460.505402
  0
LINE
  8
LC-003-002-----0
 62
     1
  6
CONTINUOUS
 10
480.460144
 20
430.505402
 11
480.460144
 21
488.910797
  0
LINE
  8
LC-003-002-----0
 62
     1
  6
CONTINUOUS
 10
480.460144
 20
430.505402
 11
630.460144
 21
430.505402
  0
LINE
  8
LC-003-002-----0
 62
     1
  6
CONTINUOUS
 10
480.460144
 20
488.910797
 11
630.460144
 21
488.910797
  0
LINE
  8
LC-003-002-----0
 62
     1
  6
CONTINUOUS
 10
480.460144
 20
475.699066
 11
630.460144
 21
475.699066
  0
LINE
  8
LC-006-012-----0
 62
     2
  6
DASHED
 10
480.460144
 20
486.912018
 11
549.960144
 21
486.912018
  0
LINE
  8
LC-006-012-----0
 62
     2
  6
DASHED
 10
549.960144
 20
445.005402
 11
549.960144
 21
488.910797
  0
LINE
  8
LC-004-006-----0
 62
     2
  6
DASHDOT
 10
555.460144
 20
424.751953
 11
555.460144
 21
495.903992
  0
LINE
  8
LC-006-012-----0
 62
     2
  6
DASHED
 10
560.960144
 20
445.005402
 11
560.960144
 21
488.910797
  0
LINE
  8
LC-006-012-----0
 62
     2
  6
DASHED
 10
564.460144
 20
430.505402
 11
564.460144
 21
445.005402
  0
LINE
  8
LC-006-012-----0
 62
     2
  6
DASHED
 10
546.460144
 20
430.505402
 11
546.460144
 21
445.005402
  0
LINE
  8
LC-006-012-----0
 62
     2
  6
DASHED
 10
546.460144
 20
445.005402
 11
564.460144
 21
445.005402
  0
LINE
  8
LC-004-006-----0
 62
     2
  6
DASHDOT
 10
506.125244
 20
451.505402
 11
532.414734
 21
451.505402
  0
LINE
  8
LC-004-006-----0
 62
     2
  6
DASHDOT
 10
517.960144
 20
440.479034
 11
517.960144
 21
462.869415
  0
CIRCLE
  8
LC-003-002-----0
 62
     1
  6
CONTINUOUS
 10
517.960144
 20
451.505402
 40
5.500000
  0
CIRCLE
  8
LC-003-002-----0
 62
     1
  6
CONTINUOUS
 10
517.960144
 20
451.505402
 40
9.000000
  0
LINE
  8
LC-006-012-----0
 62
     2
  6
DASHED
 10
560.960144
 20
486.912018
 11
630.460144
 21
486.912018
  0
LINE
  8
LC-003-002-----0
 62
     1
  6
CONTINUOUS
 10
630.460144
 20
430.505402
 11
630.460144
 21
488.910797
  0
ENDSEC
  0
EOF
