  0
SECTION
  2
HEADER
  9
$LIMMIN
 10
591.104980
 20
382.837158
  9
$LIMMAX
 10
877.752319
 20
500.098755
  9
$EXTMIN
 10
591.104980
 20
382.837158
  9
$EXTMAX
 10
877.752319
 20
500.098755
  0
ENDSEC
  0
SECTION
  2
TABLES
  0
TABLE
  2
LTYPE
 70
     4
  0
LTYPE
  2
CONTINUOUS
 70
    64
  3
Ausgezogene Linie
 72
    65
 73
     0
 40
0.0
  0
LTYPE
  2
DASHED
 70
    64
  3
__ __ __ __ __ __ __ __ __ __ __ __ __ __ __
 72
    65
 73
     2
 40
0.75
 49
0.5
 49
-0.25
  0
LTYPE
  2
DASHDOT
 70
    64
  3
__ . __ . __ . __ . __ . __ . __ . __ . __ . __
 72
    65
 73
     4
 40
1.0
 49
0.5
 49
-0.25
 49
0.0
 49
-0.25
  0
LTYPE
  2
DIVIDE
 70
    64
  3
__ . . __ . . __ . . __ . . __ . . __ . . __
 72
    65
 73
     6
 40
1.25
 49
0.5
 49
-0.25
 49
0.0
 49
-0.25
 49
0.0
 49
-0.25
  0
ENDTAB
  0
TABLE
  2
LAYER
 70
     4
  0
LAYER
  2
LC-003-002-----0
 70
    64
 62
     7
  6
CONTINUOUS
  0
LAYER
  2
LC-004-006-----0
 70
    64
 62
     7
  6
CONTINUOUS
  0
LAYER
  2
LC-006-012-----0
 70
    64
 62
     7
  6
CONTINUOUS
  0
LAYER
  2
LC-008-003-----0
 70
    64
 62
     7
  6
CONTINUOUS
  0
ENDTAB
  0
TABLE
  2
STYLE
 70
     1
  0
STYLE
  2
TXT8
 70
    64
 40
0.0
 41
1.0
 50
0.0
 71
     0
 42
3.500000
  3
TXT8
  4

  0
ENDTAB
  0
ENDSEC
  0
SECTION
  2
BLOCKS
  0
ENDSEC
  0
SECTION
  2
ENTITIES
  0
LINE
  8
LC-004-006-----0
 62
     2
  6
DASHDOT
 10
814.092590
 20
412.883728
 11
841.289368
 21
412.883728
  0
LINE
  8
LC-004-006-----0
 62
     2
  6
DASHDOT
 10
827.752319
 20
399.225891
 11
827.752319
 21
425.705811
  0
CIRCLE
  8
LC-003-002-----0
 62
     1
  6
CONTINUOUS
 10
827.752319
 20
412.883728
 40
10.000000
  0
CIRCLE
  8
LC-003-002-----0
 62
     1
  6
CONTINUOUS
 10
827.752319
 20
412.883728
 40
6.750000
  0
LINE
  8
LC-003-002-----0
 62
     1
  6
CONTINUOUS
 10
632.193420
 20
387.883728
 11
632.193420
 21
443.716125
  0
LINE
  8
LC-003-002-----0
 62
     1
  6
CONTINUOUS
 10
602.193420
 20
387.883728
 11
632.193420
 21
387.883728
  0
LINE
  8
LC-003-002-----0
 62
     1
  6
CONTINUOUS
 10
602.193420
 20
387.883728
 11
602.193420
 21
443.716125
  0
LINE
  8
LC-004-006-----0
 62
     2
  6
DASHDOT
 10
591.104980
 20
475.883728
 11
642.574768
 21
475.883728
  0
LINE
  8
LC-004-006-----0
 62
     2
  6
DASHDOT
 10
617.193420
 20
382.837158
 11
617.193420
 21
500.098755
  0
CIRCLE
  8
LC-008-003-----0
 62
     2
  6
DIVIDE
 10
617.193420
 20
475.883728
 40
20.000000
  0
LINE
  8
LC-003-002-----0
 62
     1
  6
CONTINUOUS
 10
608.741089
 20
457.757568
 11
602.193420
 21
443.716125
  0
LINE
  8
LC-003-002-----0
 62
     1
  6
CONTINUOUS
 10
625.645813
 20
457.757568
 11
632.193420
 21
443.716125
  0
LINE
  8
LC-003-002-----0
 62
     1
  6
CONTINUOUS
 10
608.741089
 20
457.757568
 11
617.193420
 21
455.092529
  0
LINE
  8
LC-003-002-----0
 62
     1
  6
CONTINUOUS
 10
625.645813
 20
457.757568
 11
617.193420
 21
455.092529
  0
LINE
  8
LC-006-012-----0
 62
     2
  6
DASHED
 10
607.193420
 20
387.883728
 11
607.193420
 21
404.883728
  0
LINE
  8
LC-006-012-----0
 62
     2
  6
DASHED
 10
627.193420
 20
387.883728
 11
627.193420
 21
404.883728
  0
LINE
  8
LC-006-012-----0
 62
     2
  6
DASHED
 10
607.193420
 20
404.883728
 11
627.193420
 21
404.883728
  0
LINE
  8
LC-006-012-----0
 62
     2
  6
DASHED
 10
610.443420
 20
404.883728
 11
610.443420
 21
457.220825
  0
LINE
  8
LC-006-012-----0
 62
     2
  6
DASHED
 10
623.943420
 20
404.883728
 11
623.943420
 21
457.220825
  0
LINE
  8
LC-006-012-----0
 62
     2
  6
DASHED
 10
602.193420
 20
422.883728
 11
618.193420
 21
422.883728
  0
LINE
  8
LC-006-012-----0
 62
     2
  6
DASHED
 10
618.193420
 20
422.883728
 11
618.193420
 21
402.883728
  0
LINE
  8
LC-006-012-----0
 62
     2
  6
DASHED
 10
602.193420
 20
402.883728
 11
618.193420
 21
402.883728
  0
LINE
  8
LC-006-012-----0
 62
     2
  6
DASHED
 10
618.193420
 20
419.633728
 11
632.193420
 21
419.633728
  0
LINE
  8
LC-006-012-----0
 62
     2
  6
DASHED
 10
618.193420
 20
406.133728
 11
632.193420
 21
406.133728
  0
LINE
  8
LC-004-006-----0
 62
     2
  6
DASHDOT
 10
598.212341
 20
412.883728
 11
636.723145
 21
412.883728
  0
LINE
  8
LC-003-002-----0
 62
     1
  6
CONTINUOUS
 10
677.752319
 20
387.883728
 11
677.752319
 21
457.757568
  0
LINE
  8
LC-003-002-----0
 62
     1
  6
CONTINUOUS
 10
677.752319
 20
387.883728
 11
877.752319
 21
387.883728
  0
LINE
  8
LC-003-002-----0
 62
     1
  6
CONTINUOUS
 10
677.752319
 20
457.757568
 11
877.752319
 21
457.757568
  0
LINE
  8
LC-006-012-----0
 62
     2
  6
DASHED
 10
677.752319
 20
455.092529
 11
771.002319
 21
455.092529
  0
LINE
  8
LC-003-002-----0
 62
     1
  6
CONTINUOUS
 10
677.752319
 20
443.716125
 11
877.752319
 21
443.716125
  0
LINE
  8
LC-004-006-----0
 62
     2
  6
DASHDOT
 10
777.752319
 20
382.837158
 11
777.752319
 21
462.936584
  0
LINE
  8
LC-006-012-----0
 62
     2
  6
DASHED
 10
771.002319
 20
404.883728
 11
771.002319
 21
457.757568
  0
LINE
  8
LC-006-012-----0
 62
     2
  6
DASHED
 10
784.502319
 20
404.883728
 11
784.502319
 21
457.757568
  0
LINE
  8
LC-006-012-----0
 62
     2
  6
DASHED
 10
787.752319
 20
387.883728
 11
787.752319
 21
404.883728
  0
LINE
  8
LC-006-012-----0
 62
     2
  6
DASHED
 10
767.752319
 20
387.883728
 11
767.752319
 21
404.883728
  0
LINE
  8
LC-006-012-----0
 62
     2
  6
DASHED
 10
767.752319
 20
404.883728
 11
787.752319
 21
404.883728
  0
LINE
  8
LC-004-006-----0
 62
     2
  6
DASHDOT
 10
714.092590
 20
412.883728
 11
741.289368
 21
412.883728
  0
LINE
  8
LC-004-006-----0
 62
     2
  6
DASHDOT
 10
727.752319
 20
399.225891
 11
727.752319
 21
425.705811
  0
CIRCLE
  8
LC-003-002-----0
 62
     1
  6
CONTINUOUS
 10
727.752319
 20
412.883728
 40
10.000000
  0
CIRCLE
  8
LC-003-002-----0
 62
     1
  6
CONTINUOUS
 10
727.752319
 20
412.883728
 40
6.750000
  0
LINE
  8
LC-006-012-----0
 62
     2
  6
DASHED
 10
784.502319
 20
455.092529
 11
877.752319
 21
455.092529
  0
LINE
  8
LC-003-002-----0
 62
     1
  6
CONTINUOUS
 10
877.752319
 20
387.883728
 11
877.752319
 21
457.757568
  0
ENDSEC
  0
EOF
