  0
SECTION
  2
HEADER
  9
$ACADVER
  1
AC1009
  9
$INSBASE
 10
0.0
 20
0.0
 30
0.0
  9
$EXTMIN
 10
157.531463623047
 20
103.998341674805
 30
0.0
  9
$EXTMAX
 10
190.005783081055
 20
116.001658325195
 30
0.0
  9
$LIMMIN
 10
157.531463623047
 20
103.998341674805
  9
$LIMMAX
 10
190.005783081055
 20
116.001658325195
  9
$ORTHOMODE
 70
           0
  9
$REGENMODE
 70
           1
  9
$FILLMODE
 70
           1
  9
$QTEXTMODE
 70
           0
  9
$MIRRTEXT
 70
           1
  9
$DRAGMODE
 70
           2
  9
$LTSCALE
 40
5.0
  9
$OSMODE
 70
           0
  9
$ATTMODE
 70
           1
  9
$TEXTSIZE
 40
0.2
  9
$TRACEWID
 40
0.05
  9
$TEXTSTYLE
  7
TXT
  9
$CLAYER
  8
0
  9
$CELTYPE
  6
CONTINUOUS
  9
$CECOLOR
 62
         256
  9
$DIMSCALE
 40
1.0
  9
$DIMASZ
 40
3.5
  9
$DIMEXO
 40
0.0625
  9
$DIMDLI
 40
0.38
  9
$DIMRND
 40
0.0
  9
$DIMDLE
 40
0.0
  9
$DIMEXE
 40
0.18
  9
$DIMTP
 40
0.0
  9
$DIMTM
 40
0.0
  9
$DIMTXT
 40
3.5
  9
$DIMCEN
 40
0.09
  9
$DIMTSZ
 40
0.0
  9
$DIMTOL
 70
           0
  9
$DIMLIM
 70
           0
  9
$DIMTIH
 70
           1
  9
$DIMTOH
 70
           1
  9
$DIMSE1
 70
           0
  9
$DIMSE2
 70
           0
  9
$DIMTAD
 70
           0
  9
$DIMZIN
 70
           0
  9
$DIMBLK
  1

  9
$DIMASO
 70
           1
  9
$DIMSHO
 70
           1
  9
$DIMPOST
  1

  9
$DIMAPOST
  1

  9
$DIMALT
 70
           0
  9
$DIMALTD
 70
           2
  9
$DIMALTF
 40
25.4
  9
$DIMLFAC
 40
1.0
  9
$DIMTOFL
 70
           0
  9
$DIMTVP
 40
0.0
  9
$DIMTIX
 70
           0
  9
$DIMSOXD
 70
           0
  9
$DIMSAH
 70
           0
  9
$DIMBLK1
  1

  9
$DIMBLK2
  1

  9
$DIMSTYLE
  2
STANDARD
  9
$DIMCLRD
 70
           0
  9
$DIMCLRE
 70
           0
  9
$DIMCLRT
 70
           0
  9
$DIMTFAC
 40
1.0
  9
$DIMGAP
 40
0.09
  9
$LUNITS
 70
           2
  9
$LUPREC
 70
           2
  9
$AXISMODE
 70
           0
  9
$AXISUNIT
 10
0.0
 20
0.0
  9
$SKETCHINC
 40
0.1
  9
$FILLETRAD
 40
0.0
  9
$AUNITS
 70
           0
  9
$AUPREC
 70
           2
  9
$MENU
  1
acad
  9
$ELEVATION
 40
0.0
  9
$PELEVATION
 40
0.0
  9
$THICKNESS
 40
0.0
  9
$LIMCHECK
 70
           0
  9
$BLIPMODE
 70
           1
  9
$CHAMFERA
 40
0.0
  9
$CHAMFERB
 40
0.0
  9
$SKPOLY
 70
           0
  9
$TDCREATE
 40
0.000000000
  9
$TDUPDATE
 40
0.000000000
  9
$TDINDWG
 40
0.0000000000
  9
$TDUSRTIMER
 40
0.0000000000
  9
$USRTIMER
 70
           1
  9
$ANGBASE
 50
0.0
  9
$ANGDIR
 70
           0
  9
$PDMODE
 70
           2
  9
$PDSIZE
 40
0.5
  9
$PLINEWID
 40
0.0
  9
$COORDS
 70
           0
  9
$SPLFRAME
 70
           0
  9
$SPLINETYPE
 70
           6
  9
$SPLINESEGS
 70
           8
  9
$ATTDIA
 70
           0
  9
$ATTREQ
 70
           1
  9
$HANDLING
 70
           1
  9
$HANDSEED
  5
56
  9
$SURFTAB1
 70
           6
  9
$SURFTAB2
 70
           6
  9
$SURFTYPE
 70
           6
  9
$SURFU
 70
           6
  9
$SURFV
 70
           6
  9
$UCSNAME
  2

  9
$UCSORG
 10
0.0
 20
0.0
 30
0.0
  9
$UCSXDIR
 10
1.0
 20
0.0
 30
0.0
  9
$UCSYDIR
 10
0.0
 20
1.0
 30
0.0
  9
$PUCSNAME
  2

  9
$PUCSORG
 10
0.0
 20
0.0
 30
0.0
  9
$PUCSXDIR
 10
1.0
 20
0.0
 30
0.0
  9
$PUCSYDIR
 10
0.0
 20
1.0
 30
0.0
  9
$USERI1
 70
           0
  9
$USERI2
 70
           0
  9
$USERI3
 70
           0
  9
$USERI4
 70
           0
  9
$USERI5
 70
           0
  9
$USERR1
 40
0.0
  9
$USERR2
 40
0.0
  9
$USERR3
 40
0.0
  9
$USERR4
 40
0.0
  9
$USERR5
 40
0.0
  9
$WORLDVIEW
 70
           1
  9
$SHADEDGE
 70
           3
  9
$SHADEDIF
 70
          70
  9
$TILEMODE
 70
           1
  9
$MAXACTVP
 70
          16
  9
$PINSBASE
 10
0.0
 20
0.0
 30
0.0
  9
$PLIMCHECK
 70
           0
  9
$PEXTMIN
 10
1.000000000000E+20
 20
1.000000000000E+20
 30
1.000000000000E+20
  9
$PEXTMAX
 10
-1.000000000000E+20
 20
-1.000000000000E+20
 30
-1.000000000000E+20
  9
$PLIMMIN
 10
0.0
 20
0.0
  9
$PLIMMAX
 10
12.0
 20
9.0
  9
$UNITMODE
 70
           0
  9
$VISRETAIN
 70
           0
  9
$PLINEGEN
 70
           1
  9
$PSLTSCALE
 70
           0
  9
$TREEDEPTH
 70
        3020
  9
$DWGCODEPAGE
  3
dos850
  0
ENDSEC
  0
SECTION
  2
TABLES
  0
TABLE
  2
VPORT
 70
           1
  0
VPORT
  2
*ACTIVE
 70
           0
 10
0.0
 20
0.0
 11
1.0
 21
1.0
 12
6.591288
 22
4.579184
 13
0.0
 23
0.0
 14
1.0
 24
1.0
 15
0.0
 25
0.0
 16
0.0
 26
0.0
 36
1.0
 17
0.0
 27
0.0
 37
0.0
 40
9.158369
 41
0.688564
 42
50.0
 43
0.0
 44
0.0
 50
0.0
 51
0.0
 71
           0
 72
         100
 73
           1
 74
           1
 75
           0
 76
           0
 77
           0
 78
           0
  0
ENDTAB
  0
TABLE
  2
LTYPE
 70
           4
  0
LTYPE
  2
CONTINUOUS
 70
          64
  3
Solid line
 72
          65
 73
           0
 40
0.0
  0
LTYPE
  2
AUSGEZOGEN
 70
           0
  3

 72
          65
 73
           2
 40
0.5
 49
0.25
 49
-0.25
  0
LTYPE
  2
STRICHLINIE
 70
           0
  3

 72
          65
 73
           2
 40
0.5
 49
0.25
 49
-0.25
  0
LTYPE
  2
STRICHPUNKT
 70
           0
  3

 72
          65
 73
           4
 40
1.0
 49
0.5
 49
-0.25
 49
0.0
 49
-0.25
  0
ENDTAB
  0
TABLE
  2
LAYER
 70
           5
  0
LAYER
  2
0
 70
           0
 62
           7
  6
CONTINUOUS
  0
LAYER
  2
ZEICHNUNG
 70
           0
 62
           7
  6
CONTINUOUS
  0
LAYER
  2
BEMAßUNG
 70
           0
 62
           7
  6
CONTINUOUS
  0
LAYER
  2
UNSICHTBARE
 70
           0
 62
           7
  6
CONTINUOUS
  0
LAYER
  2
MITTELLINIEN
 70
           0
 62
           7
  6
CONTINUOUS
  0
ENDTAB
  0
TABLE
  2
STYLE
 70
           1
  0
STYLE
  2
TXT
 70
           0
 40
3.5
 41
1.0
 50
0.0
 71
           0
 42
3.5
  3
TXT
  4

  0
ENDTAB
  0
TABLE
  2
VIEW
 70
           0
  0
ENDTAB
  0
TABLE
  2
UCS
 70
           0
  0
ENDTAB
  0
TABLE
  2
APPID
 70
           2
  0
APPID
  2
ACAD
 70
           0
  0
APPID
  2
MegaCADPntStyle
 70
           0
  0
ENDTAB
  0
TABLE
  2
DIMSTYLE
 70
           1
  0
DIMSTYLE
  2
STANDARD
 70
           0
  3

  4

  5

  6

  7

 40
1.0
 41
0.18
 42
0.0625
 43
0.38
 44
0.18
 45
0.0
 46
0.0
 47
0.0
 48
0.0
 71
           0
 72
           0
 73
           1
 74
           1
 75
           0
 76
           0
 77
           0
 78
           0
140
0.18
141
0.09
142
0.0
143
25.4
144
1.0
145
0.0
146
1.0
147
0.09
170
           0
171
           2
172
           0
173
           0
174
           0
175
           0
176
           0
177
           0
178
           0
  0
ENDTAB
  0
ENDSEC
  0
SECTION
  2
BLOCKS
  0
BLOCK
  8
0
  5
51
  2
ELIPPSE
 70
          64
 10
0.0
 20
0.0
 30
0.0
  3
ELIPPSE
  0
CIRCLE
  8
0
  6
BYBLOCK
 62
           0
  5
52
 10
0.0
 20
0.0
 30
0.0
 40
1.0
  0
ENDBLK
  8
0
  6
BYBLOCK
 62
           0
  5
53
  0
ENDSEC
  0
SECTION
  2
ENTITIES
  0
LINE
  8
ZEICHNUNG
  6
AUSGEZOGEN
 62
           1
  5
26
 10
160.666664123535
 20
116.001658325195
 30
0.0
 11
162.5
 21
116.001658325195
 31
0.0
  0
LINE
  8
ZEICHNUNG
  6
AUSGEZOGEN
 62
           1
  5
27
 10
160.666664123535
 20
103.998341674805
 30
0.0
 11
162.5
 21
103.998341674805
 31
0.0
  0
LINE
  8
ZEICHNUNG
  6
AUSGEZOGEN
 62
           1
  5
28
 10
180.500005824827
 20
107.5302734375
 30
0.0
 11
180.499990566038
 21
114.0
 31
0.0
  0
LINE
  8
ZEICHNUNG
  6
AUSGEZOGEN
 62
           1
  5
29
 10
180.500005824827
 20
106.0
 30
0.0
 11
180.500005824827
 21
107.5302734375
 31
0.0
  0
LINE
  8
ZEICHNUNG
  6
AUSGEZOGEN
 62
           1
  5
2A
 10
160.0
 20
104.664998168945
 30
0.0
 11
160.0
 21
115.335001831055
 31
0.0
  0
LINE
  8
ZEICHNUNG
  6
AUSGEZOGEN
 62
           1
  5
2B
 10
160.666664123535
 20
116.001658325195
 30
0.0
 11
160.0
 21
115.335001831055
 31
0.0
  0
LINE
  8
ZEICHNUNG
  6
AUSGEZOGEN
 62
           1
  5
2C
 10
160.0
 20
104.664998168945
 30
0.0
 11
160.666664123535
 21
103.998341674805
 31
0.0
  0
LINE
  8
ZEICHNUNG
  6
AUSGEZOGEN
 62
           1
  5
2D
 10
160.666664123535
 20
116.001658325195
 30
0.0
 11
160.666664123535
 21
103.998341674805
 31
0.0
  0
LINE
  8
ZEICHNUNG
  6
AUSGEZOGEN
 62
           1
  5
2E
 10
163.833335876465
 20
106.0
 30
0.0
 11
163.833335876465
 21
114.0
 31
0.0
  0
LINE
  8
ZEICHNUNG
  6
AUSGEZOGEN
 62
           1
  5
2F
 10
163.22827911377
 20
106.162124633789
 30
0.0
 11
163.833335876465
 21
106.0
 31
0.0
  0
LINE
  8
ZEICHNUNG
  6
AUSGEZOGEN
 62
           1
  5
30
 10
163.22827911377
 20
113.837890625
 30
0.0
 11
163.833335876465
 21
114.0
 31
0.0
  0
LINE
  8
ZEICHNUNG
  6
AUSGEZOGEN
 62
           1
  5
31
 10
162.633331298828
 20
113.83332824707
 30
0.0
 11
163.211318969727
 21
113.83332824707
 31
0.0
  0
LINE
  8
ZEICHNUNG
  6
AUSGEZOGEN
 62
           1
  5
32
 10
162.633331298828
 20
106.16667175293
 30
0.0
 11
163.211318969727
 21
106.16667175293
 31
0.0
  0
ARC
  8
ZEICHNUNG
  6
AUSGEZOGEN
 62
           1
  5
33
 10
162.633331298828
 20
113.966674804688
 30
0.0
 40
0.133333340287
 50
179.999991348578
 51
269.999997495521
  0
ARC
  8
ZEICHNUNG
  6
AUSGEZOGEN
 62
           1
  5
34
 10
162.633331298828
 20
106.033340454102
 30
0.0
 40
0.133333340287
 50
90.000009334667
 51
179.999991348578
  0
ARC
  8
ZEICHNUNG
  6
AUSGEZOGEN
 62
           1
  5
35
 10
163.19376373291
 20
106.033340454102
 30
0.0
 40
0.133333340287
 50
75.000046483295
 51
90.000009334667
  0
ARC
  8
ZEICHNUNG
  6
AUSGEZOGEN
 62
           1
  5
36
 10
163.19376373291
 20
113.966674804688
 30
0.0
 40
0.133333340287
 50
269.999997495521
 51
284.999953516705
  0
LINE
  8
ZEICHNUNG
  6
AUSGEZOGEN
 62
           1
  5
37
 10
163.19376373291
 20
113.83332824707
 30
0.0
 11
163.19376373291
 21
106.16667175293
 31
0.0
  0
LINE
  8
ZEICHNUNG
  6
AUSGEZOGEN
 62
           1
  5
38
 10
180.499990566038
 20
114.0
 30
0.0
 11
163.833335876465
 21
114.0
 31
0.0
  0
LINE
  8
ZEICHNUNG
  6
AUSGEZOGEN
 62
           1
  5
39
 10
180.500005824827
 20
106.0
 30
0.0
 11
163.833335876465
 21
106.0
 31
0.0
  0
LINE
  8
ZEICHNUNG
  6
AUSGEZOGEN
 62
           1
  5
3A
 10
162.5
 20
116.001658325195
 30
0.0
 11
162.5
 21
103.998341674805
 31
0.0
  0
LINE
  8
BEMAßUNG
  6
STRICHPUNKT
 62
           2
  5
3B
 10
157.531463623047
 20
110.0
 30
0.0
 11
190.005783081055
 21
110.0
 31
0.0
  0
LINE
  8
UNSICHTBARE
  6
STRICHLINIE
 62
           2
  5
3C
 10
159.999999975
 20
107.113248654052
 30
0.0
 11
163.0
 21
107.113248654052
 31
0.0
  0
LINE
  8
UNSICHTBARE
  6
STRICHLINIE
 62
           2
  5
3D
 10
159.999999975
 20
108.556624327026
 30
0.0
 11
163.0
 21
108.556624327026
 31
0.0
  0
LINE
  8
UNSICHTBARE
  6
STRICHLINIE
 62
           2
  5
3E
 10
159.999999975
 20
111.443375672974
 30
0.0
 11
163.0
 21
111.443375672974
 31
0.0
  0
LINE
  8
UNSICHTBARE
  6
STRICHLINIE
 62
           2
  5
3F
 10
159.999999975
 20
112.886751345948
 30
0.0
 11
163.0
 21
112.886751345948
 31
0.0
  0
LINE
  8
UNSICHTBARE
  6
STRICHLINIE
 62
           2
  5
40
 10
163.0
 20
112.886751345948
 30
0.0
 11
163.0
 21
107.113248654052
 31
0.0
  0
LINE
  8
MITTELLINIEN
  6
AUSGEZOGEN
 62
           2
  5
41
 10
189.0
 20
107.6135
 30
0.0
 11
182.0
 21
107.6135
 31
0.0
  0
LINE
  8
MITTELLINIEN
  6
AUSGEZOGEN
 62
           2
  5
42
 10
189.0
 20
112.3865
 30
0.0
 11
182.0
 21
112.3865
 31
0.0
  0
LINE
  8
ZEICHNUNG
  6
AUSGEZOGEN
 62
           1
  5
43
 10
189.0
 20
112.3865
 30
0.0
 11
188.3865
 21
113.0
 31
0.0
  0
LINE
  8
ZEICHNUNG
  6
AUSGEZOGEN
 62
           1
  5
44
 10
189.0
 20
107.6135
 30
0.0
 11
189.0
 21
112.3865
 31
0.0
  0
LINE
  8
ZEICHNUNG
  6
AUSGEZOGEN
 62
           1
  5
45
 10
188.3865
 20
107.0
 30
0.0
 11
189.0
 21
107.6135
 31
0.0
  0
LINE
  8
ZEICHNUNG
  6
AUSGEZOGEN
 62
           1
  5
46
 10
188.3865
 20
113.0
 30
0.0
 11
188.3865
 21
107.0
 31
0.0
  0
LINE
  8
ZEICHNUNG
  6
AUSGEZOGEN
 62
           1
  5
47
 10
182.6135
 20
113.0
 30
0.0
 11
188.3865
 21
113.0
 31
0.0
  0
LINE
  8
ZEICHNUNG
  6
AUSGEZOGEN
 62
           1
  5
48
 10
182.6135
 20
107.0
 30
0.0
 11
188.3865
 21
107.0
 31
0.0
  0
ARC
  8
ZEICHNUNG
  6
AUSGEZOGEN
 62
           1
  5
49
 10
181.1
 20
112.9865
 30
0.0
 40
0.6
 50
180.000000000002
 51
269.999999999999
  0
ARC
  8
ZEICHNUNG
  6
AUSGEZOGEN
 62
           1
  5
4A
 10
181.1
 20
107.0135
 30
0.0
 40
0.6
 50
90.0
 51
179.999999999997
  0
LINE
  8
ZEICHNUNG
  6
AUSGEZOGEN
 62
           1
  5
4B
 10
182.0
 20
107.6135
 30
0.0
 11
182.0
 21
112.3865
 31
0.0
  0
LINE
  8
ZEICHNUNG
  6
AUSGEZOGEN
 62
           1
  5
4C
 10
182.0
 20
112.3865
 30
0.0
 11
181.1
 21
112.3865
 31
0.0
  0
LINE
  8
ZEICHNUNG
  6
AUSGEZOGEN
 62
           1
  5
4D
 10
181.1
 20
107.6135
 30
0.0
 11
182.0
 21
107.6135
 31
0.0
  0
LINE
  8
ZEICHNUNG
  6
AUSGEZOGEN
 62
           1
  5
4E
 10
182.6135
 20
107.0
 30
0.0
 11
182.0
 21
107.6135
 31
0.0
  0
LINE
  8
ZEICHNUNG
  6
AUSGEZOGEN
 62
           1
  5
4F
 10
182.0
 20
112.3865
 30
0.0
 11
182.6135
 21
113.0
 31
0.0
  0
LINE
  8
ZEICHNUNG
  6
AUSGEZOGEN
 62
           1
  5
50
 10
182.6135
 20
113.0
 30
0.0
 11
182.6135
 21
107.0
 31
0.0
  0
ENDSEC
  0
EOF
