  0
SECTION
  2
HEADER
  9
$ACADVER
  1
AC1009
  9
$INSBASE
 10
0.0
 20
0.0
 30
0.0
  9
$EXTMIN
 10
151.38776550293
 20
210.0
 30
0.0
  9
$EXTMAX
 10
189.833993530273
 20
230.0
 30
0.0
  9
$LIMMIN
 10
151.38776550293
 20
210.0
  9
$LIMMAX
 10
189.833993530273
 20
230.0
  9
$ORTHOMODE
 70
           0
  9
$REGENMODE
 70
           1
  9
$FILLMODE
 70
           1
  9
$QTEXTMODE
 70
           0
  9
$MIRRTEXT
 70
           1
  9
$DRAGMODE
 70
           2
  9
$LTSCALE
 40
5.0
  9
$OSMODE
 70
           0
  9
$ATTMODE
 70
           1
  9
$TEXTSIZE
 40
0.2
  9
$TRACEWID
 40
0.05
  9
$TEXTSTYLE
  7
TXT
  9
$CLAYER
  8
0
  9
$CELTYPE
  6
CONTINUOUS
  9
$CECOLOR
 62
         256
  9
$DIMSCALE
 40
1.0
  9
$DIMASZ
 40
3.5
  9
$DIMEXO
 40
0.0625
  9
$DIMDLI
 40
0.38
  9
$DIMRND
 40
0.0
  9
$DIMDLE
 40
0.0
  9
$DIMEXE
 40
0.18
  9
$DIMTP
 40
0.0
  9
$DIMTM
 40
0.0
  9
$DIMTXT
 40
3.5
  9
$DIMCEN
 40
0.09
  9
$DIMTSZ
 40
0.0
  9
$DIMTOL
 70
           0
  9
$DIMLIM
 70
           0
  9
$DIMTIH
 70
           1
  9
$DIMTOH
 70
           1
  9
$DIMSE1
 70
           0
  9
$DIMSE2
 70
           0
  9
$DIMTAD
 70
           0
  9
$DIMZIN
 70
           0
  9
$DIMBLK
  1

  9
$DIMASO
 70
           1
  9
$DIMSHO
 70
           1
  9
$DIMPOST
  1

  9
$DIMAPOST
  1

  9
$DIMALT
 70
           0
  9
$DIMALTD
 70
           2
  9
$DIMALTF
 40
25.4
  9
$DIMLFAC
 40
1.0
  9
$DIMTOFL
 70
           0
  9
$DIMTVP
 40
0.0
  9
$DIMTIX
 70
           0
  9
$DIMSOXD
 70
           0
  9
$DIMSAH
 70
           0
  9
$DIMBLK1
  1

  9
$DIMBLK2
  1

  9
$DIMSTYLE
  2
STANDARD
  9
$DIMCLRD
 70
           0
  9
$DIMCLRE
 70
           0
  9
$DIMCLRT
 70
           0
  9
$DIMTFAC
 40
1.0
  9
$DIMGAP
 40
0.09
  9
$LUNITS
 70
           2
  9
$LUPREC
 70
           2
  9
$AXISMODE
 70
           0
  9
$AXISUNIT
 10
0.0
 20
0.0
  9
$SKETCHINC
 40
0.1
  9
$FILLETRAD
 40
0.0
  9
$AUNITS
 70
           0
  9
$AUPREC
 70
           2
  9
$MENU
  1
acad
  9
$ELEVATION
 40
0.0
  9
$PELEVATION
 40
0.0
  9
$THICKNESS
 40
0.0
  9
$LIMCHECK
 70
           0
  9
$BLIPMODE
 70
           1
  9
$CHAMFERA
 40
0.0
  9
$CHAMFERB
 40
0.0
  9
$SKPOLY
 70
           0
  9
$TDCREATE
 40
0.000000000
  9
$TDUPDATE
 40
0.000000000
  9
$TDINDWG
 40
0.0000000000
  9
$TDUSRTIMER
 40
0.0000000000
  9
$USRTIMER
 70
           1
  9
$ANGBASE
 50
0.0
  9
$ANGDIR
 70
           0
  9
$PDMODE
 70
           2
  9
$PDSIZE
 40
0.5
  9
$PLINEWID
 40
0.0
  9
$COORDS
 70
           0
  9
$SPLFRAME
 70
           0
  9
$SPLINETYPE
 70
           6
  9
$SPLINESEGS
 70
           8
  9
$ATTDIA
 70
           0
  9
$ATTREQ
 70
           1
  9
$HANDLING
 70
           1
  9
$HANDSEED
  5
8E
  9
$SURFTAB1
 70
           6
  9
$SURFTAB2
 70
           6
  9
$SURFTYPE
 70
           6
  9
$SURFU
 70
           6
  9
$SURFV
 70
           6
  9
$UCSNAME
  2

  9
$UCSORG
 10
0.0
 20
0.0
 30
0.0
  9
$UCSXDIR
 10
1.0
 20
0.0
 30
0.0
  9
$UCSYDIR
 10
0.0
 20
1.0
 30
0.0
  9
$PUCSNAME
  2

  9
$PUCSORG
 10
0.0
 20
0.0
 30
0.0
  9
$PUCSXDIR
 10
1.0
 20
0.0
 30
0.0
  9
$PUCSYDIR
 10
0.0
 20
1.0
 30
0.0
  9
$USERI1
 70
           0
  9
$USERI2
 70
           0
  9
$USERI3
 70
           0
  9
$USERI4
 70
           0
  9
$USERI5
 70
           0
  9
$USERR1
 40
0.0
  9
$USERR2
 40
0.0
  9
$USERR3
 40
0.0
  9
$USERR4
 40
0.0
  9
$USERR5
 40
0.0
  9
$WORLDVIEW
 70
           1
  9
$SHADEDGE
 70
           3
  9
$SHADEDIF
 70
          70
  9
$TILEMODE
 70
           1
  9
$MAXACTVP
 70
          16
  9
$PINSBASE
 10
0.0
 20
0.0
 30
0.0
  9
$PLIMCHECK
 70
           0
  9
$PEXTMIN
 10
1.000000000000E+20
 20
1.000000000000E+20
 30
1.000000000000E+20
  9
$PEXTMAX
 10
-1.000000000000E+20
 20
-1.000000000000E+20
 30
-1.000000000000E+20
  9
$PLIMMIN
 10
0.0
 20
0.0
  9
$PLIMMAX
 10
12.0
 20
9.0
  9
$UNITMODE
 70
           0
  9
$VISRETAIN
 70
           0
  9
$PLINEGEN
 70
           1
  9
$PSLTSCALE
 70
           0
  9
$TREEDEPTH
 70
        3020
  9
$DWGCODEPAGE
  3
dos850
  0
ENDSEC
  0
SECTION
  2
TABLES
  0
TABLE
  2
VPORT
 70
           1
  0
VPORT
  2
*ACTIVE
 70
           0
 10
0.0
 20
0.0
 11
1.0
 21
1.0
 12
6.591288
 22
4.579184
 13
0.0
 23
0.0
 14
1.0
 24
1.0
 15
0.0
 25
0.0
 16
0.0
 26
0.0
 36
1.0
 17
0.0
 27
0.0
 37
0.0
 40
9.158369
 41
0.688564
 42
50.0
 43
0.0
 44
0.0
 50
0.0
 51
0.0
 71
           0
 72
         100
 73
           1
 74
           1
 75
           0
 76
           0
 77
           0
 78
           0
  0
ENDTAB
  0
TABLE
  2
LTYPE
 70
           4
  0
LTYPE
  2
CONTINUOUS
 70
          64
  3
Solid line
 72
          65
 73
           0
 40
0.0
  0
LTYPE
  2
AUSGEZOGEN
 70
           0
  3

 72
          65
 73
           2
 40
0.5
 49
0.25
 49
-0.25
  0
LTYPE
  2
VERDECKT
 70
           0
  3

 72
          65
 73
           2
 40
0.375
 49
0.25
 49
-0.125
  0
LTYPE
  2
STRICHPUNKT
 70
           0
  3

 72
          65
 73
           4
 40
1.0
 49
0.5
 49
-0.25
 49
0.0
 49
-0.25
  0
ENDTAB
  0
TABLE
  2
LAYER
 70
           5
  0
LAYER
  2
0
 70
           0
 62
           7
  6
CONTINUOUS
  0
LAYER
  2
ZEICHNUNG
 70
           0
 62
           7
  6
CONTINUOUS
  0
LAYER
  2
BEMAßUNG
 70
           0
 62
           7
  6
CONTINUOUS
  0
LAYER
  2
UNSICHTBARE
 70
           0
 62
           7
  6
CONTINUOUS
  0
LAYER
  2
MITTELLINIEN
 70
           0
 62
           7
  6
CONTINUOUS
  0
ENDTAB
  0
TABLE
  2
STYLE
 70
           1
  0
STYLE
  2
TXT
 70
           0
 40
3.5
 41
1.0
 50
0.0
 71
           0
 42
3.5
  3
TXT
  4

  0
ENDTAB
  0
TABLE
  2
VIEW
 70
           0
  0
ENDTAB
  0
TABLE
  2
UCS
 70
           0
  0
ENDTAB
  0
TABLE
  2
APPID
 70
           2
  0
APPID
  2
ACAD
 70
           0
  0
APPID
  2
MegaCADPntStyle
 70
           0
  0
ENDTAB
  0
TABLE
  2
DIMSTYLE
 70
           1
  0
DIMSTYLE
  2
STANDARD
 70
           0
  3

  4

  5

  6

  7

 40
1.0
 41
0.18
 42
0.0625
 43
0.38
 44
0.18
 45
0.0
 46
0.0
 47
0.0
 48
0.0
 71
           0
 72
           0
 73
           1
 74
           1
 75
           0
 76
           0
 77
           0
 78
           0
140
0.18
141
0.09
142
0.0
143
25.4
144
1.0
145
0.0
146
1.0
147
0.09
170
           0
171
           2
172
           0
173
           0
174
           0
175
           0
176
           0
177
           0
178
           0
  0
ENDTAB
  0
ENDSEC
  0
SECTION
  2
BLOCKS
  0
BLOCK
  8
0
  5
75
  2
ELIPPSE
 70
          64
 10
0.0
 20
0.0
 30
0.0
  3
ELIPPSE
  0
CIRCLE
  8
0
  6
BYBLOCK
 62
           0
  5
76
 10
0.0
 20
0.0
 30
0.0
 40
1.0
  0
ENDBLK
  8
0
  6
BYBLOCK
 62
           0
  5
77
  0
BLOCK
  8
0
  5
78
  2
*X1
 70
          65
 10
0.0
 20
0.0
 30
0.0
  3
*X1
  0
LINE
  8
0
  6
BYBLOCK
 62
           0
  5
79
 10
176.51086730957
 20
223.99441355449
 30
0.0
 11
174.610879516602
 21
225.894401347459
 31
0.0
  0
LINE
  8
0
  6
BYBLOCK
 62
           0
  5
7A
 10
175.71742007747
 20
221.393748236895
 30
0.0
 11
174.610879516602
 21
222.500288797764
 31
0.0
  0
LINE
  8
0
  6
BYBLOCK
 62
           0
  5
7B
 10
175.823467528235
 20
217.893588236435
 30
0.0
 11
174.610879516602
 21
219.106176248068
 31
0.0
  0
LINE
  8
0
  6
BYBLOCK
 62
           0
  5
7C
 10
176.51086730957
 20
213.812075905404
 30
0.0
 11
174.610879516602
 21
215.712063698373
 31
0.0
  0
LINE
  8
0
  6
BYBLOCK
 62
           0
  5
7D
 10
166.610879516602
 20
223.712063698373
 30
0.0
 11
164.710891723633
 21
225.612051491342
 31
0.0
  0
LINE
  8
0
  6
BYBLOCK
 62
           0
  5
7E
 10
166.610879516602
 20
220.317951148677
 30
0.0
 11
165.501309982218
 21
221.427520683061
 31
0.0
  0
LINE
  8
0
  6
BYBLOCK
 62
           0
  5
7F
 10
166.610879516602
 20
216.923838598982
 30
0.0
 11
165.133533752337
 21
218.401184363246
 31
0.0
  0
LINE
  8
0
  6
BYBLOCK
 62
           0
  5
80
 10
166.348533011168
 20
213.79207255472
 30
0.0
 11
164.710891723633
 21
215.429713842255
 31
0.0
  0
ENDBLK
  8
0
  6
BYBLOCK
 62
           0
  5
81
  0
BLOCK
  8
0
  5
82
  2
*X2
 70
          65
 10
0.0
 20
0.0
 30
0.0
  3
*X2
  0
LINE
  8
0
  6
BYBLOCK
 62
           0
  5
83
 10
179.790857067336
 20
213.73198256429
 30
0.0
 11
182.373873063761
 21
216.314998560716
 31
0.0
  0
LINE
  8
0
  6
BYBLOCK
 62
           0
  5
84
 10
179.70129419086
 20
217.03653223751
 30
0.0
 11
181.176295303516
 21
218.511533350165
 31
0.0
  0
LINE
  8
0
  6
BYBLOCK
 62
           0
  5
85
 10
179.333713343042
 20
220.063063939387
 30
0.0
 11
182.510873413086
 21
223.240224009431
 31
0.0
  0
LINE
  8
0
  6
BYBLOCK
 62
           0
  5
86
 10
178.91086730957
 20
223.034330455611
 30
0.0
 11
180.60851941825
 21
224.73198256429
 31
0.0
  0
LINE
  8
0
  6
BYBLOCK
 62
           0
  5
87
 10
159.458543649812
 20
213.764344444939
 30
0.0
 11
161.834871842136
 21
216.140672637263
 31
0.0
  0
LINE
  8
0
  6
BYBLOCK
 62
           0
  5
88
 10
159.629357745376
 20
217.329271090198
 30
0.0
 11
162.107306550699
 21
219.807219895521
 31
0.0
  0
LINE
  8
0
  6
BYBLOCK
 62
           0
  5
89
 10
159.765012638696
 20
220.859038533214
 30
0.0
 11
162.310891723633
 21
223.404917618151
 31
0.0
  0
LINE
  8
0
  6
BYBLOCK
 62
           0
  5
8A
 10
158.710885620117
 20
223.19902406433
 30
0.0
 11
160.243844120077
 21
224.73198256429
 31
0.0
  0
ENDBLK
  8
0
  6
BYBLOCK
 62
           0
  5
8B
  0
ENDSEC
  0
SECTION
  2
ENTITIES
  0
LINE
  8
ZEICHNUNG
  6
AUSGEZOGEN
 62
           1
  5
28
 10
182.510873413086
 20
222.271716451009
 30
0.0
 11
182.510873413086
 21
223.73198256429
 31
0.0
  0
LINE
  8
ZEICHNUNG
  6
AUSGEZOGEN
 62
           1
  5
29
 10
182.510873413086
 20
214.73198256429
 30
0.0
 11
182.510873413086
 21
216.192248677572
 31
0.0
  0
LINE
  8
ZEICHNUNG
  6
AUSGEZOGEN
 62
           1
  5
2A
 10
181.510873413086
 20
224.73198256429
 30
0.0
 11
176.51086730957
 21
224.73198256429
 31
0.0
  0
LINE
  8
ZEICHNUNG
  6
AUSGEZOGEN
 62
           1
  5
2B
 10
170.610879516602
 20
213.73198256429
 30
0.0
 11
181.510873413086
 21
213.73198256429
 31
0.0
  0
LINE
  8
ZEICHNUNG
  6
AUSGEZOGEN
 62
           1
  5
2C
 10
176.51086730957
 20
222.83198256429
 30
0.0
 11
176.51086730957
 21
226.23198256429
 31
0.0
  0
LINE
  8
ZEICHNUNG
  6
AUSGEZOGEN
 62
           1
  5
2D
 10
176.51086730957
 20
218.83198256429
 30
0.0
 11
176.51086730957
 21
219.63198256429
 31
0.0
  0
LINE
  8
ZEICHNUNG
  6
AUSGEZOGEN
 62
           1
  5
2E
 10
176.51086730957
 20
213.73198256429
 30
0.0
 11
176.51086730957
 21
215.63198256429
 31
0.0
  0
LINE
  8
ZEICHNUNG
  6
AUSGEZOGEN
 62
           1
  5
2F
 10
170.610879516602
 20
226.23198256429
 30
0.0
 11
176.51086730957
 21
226.23198256429
 31
0.0
  0
ARC
  8
ZEICHNUNG
  6
AUSGEZOGEN
 62
           1
  5
30
 10
185.110879516602
 20
219.23198256429
 30
0.0
 40
4.0
 50
130.541662662789
 51
229.458337337211
  0
CIRCLE
  8
UNSICHTBARE
  6
VERDECKT
 62
           2
  5
31
 10
185.110879516602
 20
219.23198256429
 30
0.0
 40
4.0
  0
LINE
  8
BEMAßUNG
  6
STRICHPUNKT
 62
           2
  5
32
 10
189.833993530273
 20
219.23198256429
 30
0.0
 11
180.675149536133
 21
219.23198256429
 31
0.0
  0
LINE
  8
BEMAßUNG
  6
STRICHPUNKT
 62
           2
  5
33
 10
185.110879516602
 20
214.676425313314
 30
0.0
 11
185.110879516602
 21
223.667994832357
 31
0.0
  0
LINE
  8
BEMAßUNG
  6
STRICHPUNKT
 62
           2
  5
34
 10
170.610879516602
 20
210.0
 30
0.0
 11
170.610879516602
 21
230.0
 31
0.0
  0
CIRCLE
  8
ZEICHNUNG
  6
AUSGEZOGEN
 62
           1
  5
35
 10
177.71086730957
 20
221.23198256429
 30
0.0
 40
2.0
  0
CIRCLE
  8
ZEICHNUNG
  6
AUSGEZOGEN
 62
           1
  5
36
 10
177.71086730957
 20
217.23198256429
 30
0.0
 40
2.0
  0
LINE
  8
ZEICHNUNG
  6
AUSGEZOGEN
 62
           1
  5
37
 10
178.91086730957
 20
222.83198256429
 30
0.0
 11
178.91086730957
 21
224.73198256429
 31
0.0
  0
LINE
  8
ZEICHNUNG
  6
AUSGEZOGEN
 62
           1
  5
38
 10
178.91086730957
 20
218.83198256429
 30
0.0
 11
178.91086730957
 21
219.63198256429
 31
0.0
  0
LINE
  8
ZEICHNUNG
  6
AUSGEZOGEN
 62
           1
  5
39
 10
178.91086730957
 20
213.73198256429
 30
0.0
 11
178.91086730957
 21
215.63198256429
 31
0.0
  0
LINE
  8
ZEICHNUNG
  6
AUSGEZOGEN
 62
           1
  5
3A
 10
178.61086730957
 20
223.01803967424
 30
0.0
 11
178.61086730957
 21
223.93198256429
 31
0.0
  0
LINE
  8
ZEICHNUNG
  6
AUSGEZOGEN
 62
           1
  5
3B
 10
176.81086730957
 20
223.01803967424
 30
0.0
 11
176.81086730957
 21
223.93198256429
 31
0.0
  0
LINE
  8
ZEICHNUNG
  6
AUSGEZOGEN
 62
           1
  5
3C
 10
178.61086730957
 20
223.93198256429
 30
0.0
 11
176.81086730957
 21
223.93198256429
 31
0.0
  0
LINE
  8
MITTELLINIEN
  6
AUSGEZOGEN
 62
           2
  5
3D
 10
178.91086730957
 20
224.53198256429
 30
0.0
 11
176.71086730957
 21
224.53198256429
 31
0.0
  0
LINE
  8
MITTELLINIEN
  6
AUSGEZOGEN
 62
           2
  5
3E
 10
178.91086730957
 20
224.33198256429
 30
0.0
 11
176.71086730957
 21
224.33198256429
 31
0.0
  0
LINE
  8
MITTELLINIEN
  6
AUSGEZOGEN
 62
           2
  5
3F
 10
176.71086730957
 20
224.33198256429
 30
0.0
 11
176.71086730957
 21
224.53198256429
 31
0.0
  0
LINE
  8
ZEICHNUNG
  6
AUSGEZOGEN
 62
           1
  5
40
 10
178.61086730957
 20
215.445925454341
 30
0.0
 11
178.61086730957
 21
214.53198256429
 31
0.0
  0
LINE
  8
ZEICHNUNG
  6
AUSGEZOGEN
 62
           1
  5
41
 10
176.81086730957
 20
215.445925454341
 30
0.0
 11
176.81086730957
 21
214.53198256429
 31
0.0
  0
LINE
  8
ZEICHNUNG
  6
AUSGEZOGEN
 62
           1
  5
42
 10
178.61086730957
 20
214.53198256429
 30
0.0
 11
176.81086730957
 21
214.53198256429
 31
0.0
  0
LINE
  8
MITTELLINIEN
  6
AUSGEZOGEN
 62
           2
  5
43
 10
178.91086730957
 20
213.93198256429
 30
0.0
 11
176.71086730957
 21
213.93198256429
 31
0.0
  0
LINE
  8
MITTELLINIEN
  6
AUSGEZOGEN
 62
           2
  5
44
 10
178.91086730957
 20
214.13198256429
 30
0.0
 11
176.71086730957
 21
214.13198256429
 31
0.0
  0
LINE
  8
MITTELLINIEN
  6
AUSGEZOGEN
 62
           2
  5
45
 10
176.71086730957
 20
214.13198256429
 30
0.0
 11
176.71086730957
 21
213.93198256429
 31
0.0
  0
LINE
  8
ZEICHNUNG
  6
AUSGEZOGEN
 62
           1
  5
46
 10
158.710885620117
 20
222.271716451009
 30
0.0
 11
158.710885620117
 21
223.73198256429
 31
0.0
  0
LINE
  8
ZEICHNUNG
  6
AUSGEZOGEN
 62
           1
  5
47
 10
158.710885620117
 20
214.73198256429
 30
0.0
 11
158.710885620117
 21
216.192248677572
 31
0.0
  0
LINE
  8
ZEICHNUNG
  6
AUSGEZOGEN
 62
           1
  5
48
 10
159.710885620117
 20
224.73198256429
 30
0.0
 11
164.710891723633
 21
224.73198256429
 31
0.0
  0
LINE
  8
ZEICHNUNG
  6
AUSGEZOGEN
 62
           1
  5
49
 10
170.610879516602
 20
213.73198256429
 30
0.0
 11
159.710885620117
 21
213.73198256429
 31
0.0
  0
LINE
  8
ZEICHNUNG
  6
AUSGEZOGEN
 62
           1
  5
4A
 10
164.710891723633
 20
222.83198256429
 30
0.0
 11
164.710891723633
 21
226.23198256429
 31
0.0
  0
LINE
  8
ZEICHNUNG
  6
AUSGEZOGEN
 62
           1
  5
4B
 10
164.710891723633
 20
218.83198256429
 30
0.0
 11
164.710891723633
 21
219.63198256429
 31
0.0
  0
LINE
  8
ZEICHNUNG
  6
AUSGEZOGEN
 62
           1
  5
4C
 10
164.710891723633
 20
213.73198256429
 30
0.0
 11
164.710891723633
 21
215.63198256429
 31
0.0
  0
LINE
  8
ZEICHNUNG
  6
AUSGEZOGEN
 62
           1
  5
4D
 10
170.610879516602
 20
226.23198256429
 30
0.0
 11
164.710891723633
 21
226.23198256429
 31
0.0
  0
ARC
  8
ZEICHNUNG
  6
AUSGEZOGEN
 62
           1
  5
4E
 10
156.110879516602
 20
219.23198256429
 30
0.0
 40
4.0
 50
310.541662662787
 51
49.458337337212
  0
CIRCLE
  8
UNSICHTBARE
  6
VERDECKT
 62
           2
  5
4F
 10
156.110879516602
 20
219.23198256429
 30
0.0
 40
4.0
  0
LINE
  8
BEMAßUNG
  6
STRICHPUNKT
 62
           2
  5
50
 10
151.38776550293
 20
219.23198256429
 30
0.0
 11
160.54660949707
 21
219.23198256429
 31
0.0
  0
LINE
  8
BEMAßUNG
  6
STRICHPUNKT
 62
           2
  5
51
 10
156.110879516602
 20
214.676425313314
 30
0.0
 11
156.110879516602
 21
223.667994832357
 31
0.0
  0
CIRCLE
  8
ZEICHNUNG
  6
AUSGEZOGEN
 62
           1
  5
52
 10
163.510891723633
 20
221.23198256429
 30
0.0
 40
2.0
  0
CIRCLE
  8
ZEICHNUNG
  6
AUSGEZOGEN
 62
           1
  5
53
 10
163.510891723633
 20
217.23198256429
 30
0.0
 40
2.0
  0
LINE
  8
ZEICHNUNG
  6
AUSGEZOGEN
 62
           1
  5
54
 10
162.310891723633
 20
222.83198256429
 30
0.0
 11
162.310891723633
 21
224.73198256429
 31
0.0
  0
LINE
  8
ZEICHNUNG
  6
AUSGEZOGEN
 62
           1
  5
55
 10
162.310891723633
 20
218.83198256429
 30
0.0
 11
162.310891723633
 21
219.63198256429
 31
0.0
  0
LINE
  8
ZEICHNUNG
  6
AUSGEZOGEN
 62
           1
  5
56
 10
162.310891723633
 20
213.73198256429
 30
0.0
 11
162.310891723633
 21
215.63198256429
 31
0.0
  0
LINE
  8
ZEICHNUNG
  6
AUSGEZOGEN
 62
           1
  5
57
 10
162.610891723633
 20
223.01803967424
 30
0.0
 11
162.610891723633
 21
223.93198256429
 31
0.0
  0
LINE
  8
ZEICHNUNG
  6
AUSGEZOGEN
 62
           1
  5
58
 10
164.410891723633
 20
223.01803967424
 30
0.0
 11
164.410891723633
 21
223.93198256429
 31
0.0
  0
LINE
  8
ZEICHNUNG
  6
AUSGEZOGEN
 62
           1
  5
59
 10
162.610891723633
 20
223.93198256429
 30
0.0
 11
164.410891723633
 21
223.93198256429
 31
0.0
  0
LINE
  8
MITTELLINIEN
  6
AUSGEZOGEN
 62
           2
  5
5A
 10
162.310891723633
 20
224.53198256429
 30
0.0
 11
164.510891723633
 21
224.53198256429
 31
0.0
  0
LINE
  8
MITTELLINIEN
  6
AUSGEZOGEN
 62
           2
  5
5B
 10
162.310891723633
 20
224.33198256429
 30
0.0
 11
164.510891723633
 21
224.33198256429
 31
0.0
  0
LINE
  8
MITTELLINIEN
  6
AUSGEZOGEN
 62
           2
  5
5C
 10
164.510891723633
 20
224.33198256429
 30
0.0
 11
164.510891723633
 21
224.53198256429
 31
0.0
  0
LINE
  8
ZEICHNUNG
  6
AUSGEZOGEN
 62
           1
  5
5D
 10
162.610891723633
 20
215.445925454341
 30
0.0
 11
162.610891723633
 21
214.53198256429
 31
0.0
  0
LINE
  8
ZEICHNUNG
  6
AUSGEZOGEN
 62
           1
  5
5E
 10
164.410891723633
 20
215.445925454341
 30
0.0
 11
164.410891723633
 21
214.53198256429
 31
0.0
  0
LINE
  8
ZEICHNUNG
  6
AUSGEZOGEN
 62
           1
  5
5F
 10
162.610891723633
 20
214.53198256429
 30
0.0
 11
164.410891723633
 21
214.53198256429
 31
0.0
  0
LINE
  8
MITTELLINIEN
  6
AUSGEZOGEN
 62
           2
  5
60
 10
162.310891723633
 20
213.93198256429
 30
0.0
 11
164.510891723633
 21
213.93198256429
 31
0.0
  0
LINE
  8
MITTELLINIEN
  6
AUSGEZOGEN
 62
           2
  5
61
 10
162.310891723633
 20
214.13198256429
 30
0.0
 11
164.510891723633
 21
214.13198256429
 31
0.0
  0
LINE
  8
MITTELLINIEN
  6
AUSGEZOGEN
 62
           2
  5
62
 10
164.510891723633
 20
214.13198256429
 30
0.0
 11
164.510891723633
 21
213.93198256429
 31
0.0
  0
LINE
  8
ZEICHNUNG
  6
AUSGEZOGEN
 62
           1
  5
63
 10
174.610879516602
 20
214.23198256429
 30
0.0
 11
174.610879516602
 21
226.23198256429
 31
0.0
  0
LINE
  8
ZEICHNUNG
  6
AUSGEZOGEN
 62
           1
  5
64
 10
166.610879516602
 20
214.23198256429
 30
0.0
 11
166.610879516602
 21
226.23198256429
 31
0.0
  0
LINE
  8
BEMAßUNG
  6
STRICHPUNKT
 62
           2
  5
65
 10
176.61680376181
 20
221.23198256429
 30
0.0
 11
178.80493085733
 21
221.23198256429
 31
0.0
  0
LINE
  8
BEMAßUNG
  6
STRICHPUNKT
 62
           2
  5
66
 10
177.71086730957
 20
220.13791901653
 30
0.0
 11
177.71086730957
 21
222.32604611205
 31
0.0
  0
LINE
  8
BEMAßUNG
  6
STRICHPUNKT
 62
           2
  5
67
 10
176.61680376181
 20
217.23198256429
 30
0.0
 11
178.80493085733
 21
217.23198256429
 31
0.0
  0
LINE
  8
BEMAßUNG
  6
STRICHPUNKT
 62
           2
  5
68
 10
177.71086730957
 20
216.13791901653
 30
0.0
 11
177.71086730957
 21
218.32604611205
 31
0.0
  0
LINE
  8
BEMAßUNG
  6
STRICHPUNKT
 62
           2
  5
69
 10
162.416828175873
 20
221.23198256429
 30
0.0
 11
164.604955271393
 21
221.23198256429
 31
0.0
  0
LINE
  8
BEMAßUNG
  6
STRICHPUNKT
 62
           2
  5
6A
 10
163.510891723633
 20
220.13791901653
 30
0.0
 11
163.510891723633
 21
222.32604611205
 31
0.0
  0
LINE
  8
BEMAßUNG
  6
STRICHPUNKT
 62
           2
  5
6B
 10
162.416828175873
 20
217.23198256429
 30
0.0
 11
164.604955271393
 21
217.23198256429
 31
0.0
  0
LINE
  8
BEMAßUNG
  6
STRICHPUNKT
 62
           2
  5
6C
 10
163.510891723633
 20
216.13791901653
 30
0.0
 11
163.510891723633
 21
218.32604611205
 31
0.0
  0
ARC
  8
ZEICHNUNG
  6
AUSGEZOGEN
 62
           1
  5
6D
 10
166.110879516602
 20
214.23198256429
 30
0.0
 40
0.5
 50
269.999999999999
 51
0.0
  0
ARC
  8
ZEICHNUNG
  6
AUSGEZOGEN
 62
           1
  5
6E
 10
175.110879516602
 20
214.23198256429
 30
0.0
 40
0.5
 50
180.0
 51
269.999999999999
  0
ARC
  8
ZEICHNUNG
  6
AUSGEZOGEN
 62
           1
  5
6F
 10
181.510873413086
 20
223.73198256429
 30
0.0
 40
1.0
 50
0.0
 51
90.0
  0
ARC
  8
ZEICHNUNG
  6
AUSGEZOGEN
 62
           1
  5
70
 10
181.510873413086
 20
214.73198256429
 30
0.0
 40
1.0
 50
269.999999999999
 51
0.0
  0
ARC
  8
ZEICHNUNG
  6
AUSGEZOGEN
 62
           1
  5
71
 10
159.710885620117
 20
214.73198256429
 30
0.0
 40
1.0
 50
180.0
 51
269.999999999999
  0
ARC
  8
ZEICHNUNG
  6
AUSGEZOGEN
 62
           1
  5
72
 10
159.710885620117
 20
223.73198256429
 30
0.0
 40
1.0
 50
90.0
 51
180.0
  0
INSERT
  8
MITTELLINIEN
  6
AUSGEZOGEN
 62
           2
  5
73
  2
*X1
 10
0.0
 20
0.0
 30
0.0
  0
INSERT
  8
MITTELLINIEN
  6
AUSGEZOGEN
 62
           2
  5
74
  2
*X2
 10
0.0
 20
0.0
 30
0.0
  0
ENDSEC
  0
EOF
