  0
SECTION
  2
HEADER
  9
$ACADVER
  1
AC1009
  9
$INSBASE
 10
0.0
 20
0.0
 30
0.0
  9
$EXTMIN
 10
130.000002624588
 20
552.400002341867
 30
0.0
  9
$EXTMAX
 10
211.307435308719
 20
587.400002341867
 30
0.0
  9
$LIMMIN
 10
130.000002624588
 20
552.400002341867
  9
$LIMMAX
 10
211.307435308719
 20
587.400002341867
  9
$ORTHOMODE
 70
           0
  9
$REGENMODE
 70
           1
  9
$FILLMODE
 70
           1
  9
$QTEXTMODE
 70
           0
  9
$MIRRTEXT
 70
           1
  9
$DRAGMODE
 70
           2
  9
$LTSCALE
 40
5.0
  9
$OSMODE
 70
           0
  9
$ATTMODE
 70
           1
  9
$TEXTSIZE
 40
0.2
  9
$TRACEWID
 40
0.05
  9
$TEXTSTYLE
  7
TXT
  9
$CLAYER
  8
0
  9
$CELTYPE
  6
CONTINUOUS
  9
$CECOLOR
 62
         256
  9
$DIMSCALE
 40
1.0
  9
$DIMASZ
 40
3.5
  9
$DIMEXO
 40
0.0625
  9
$DIMDLI
 40
0.38
  9
$DIMRND
 40
0.0
  9
$DIMDLE
 40
0.0
  9
$DIMEXE
 40
0.18
  9
$DIMTP
 40
0.0
  9
$DIMTM
 40
0.0
  9
$DIMTXT
 40
3.5
  9
$DIMCEN
 40
0.09
  9
$DIMTSZ
 40
0.0
  9
$DIMTOL
 70
           0
  9
$DIMLIM
 70
           0
  9
$DIMTIH
 70
           1
  9
$DIMTOH
 70
           1
  9
$DIMSE1
 70
           0
  9
$DIMSE2
 70
           0
  9
$DIMTAD
 70
           0
  9
$DIMZIN
 70
           0
  9
$DIMBLK
  1

  9
$DIMASO
 70
           1
  9
$DIMSHO
 70
           1
  9
$DIMPOST
  1

  9
$DIMAPOST
  1

  9
$DIMALT
 70
           0
  9
$DIMALTD
 70
           2
  9
$DIMALTF
 40
25.4
  9
$DIMLFAC
 40
1.0
  9
$DIMTOFL
 70
           0
  9
$DIMTVP
 40
0.0
  9
$DIMTIX
 70
           0
  9
$DIMSOXD
 70
           0
  9
$DIMSAH
 70
           0
  9
$DIMBLK1
  1

  9
$DIMBLK2
  1

  9
$DIMSTYLE
  2
STANDARD
  9
$DIMCLRD
 70
           0
  9
$DIMCLRE
 70
           0
  9
$DIMCLRT
 70
           0
  9
$DIMTFAC
 40
1.0
  9
$DIMGAP
 40
0.09
  9
$LUNITS
 70
           2
  9
$LUPREC
 70
           2
  9
$AXISMODE
 70
           0
  9
$AXISUNIT
 10
0.0
 20
0.0
  9
$SKETCHINC
 40
0.1
  9
$FILLETRAD
 40
0.0
  9
$AUNITS
 70
           0
  9
$AUPREC
 70
           2
  9
$MENU
  1
acad
  9
$ELEVATION
 40
0.0
  9
$PELEVATION
 40
0.0
  9
$THICKNESS
 40
0.0
  9
$LIMCHECK
 70
           0
  9
$BLIPMODE
 70
           1
  9
$CHAMFERA
 40
0.0
  9
$CHAMFERB
 40
0.0
  9
$SKPOLY
 70
           0
  9
$TDCREATE
 40
0.000000000
  9
$TDUPDATE
 40
0.000000000
  9
$TDINDWG
 40
0.0000000000
  9
$TDUSRTIMER
 40
0.0000000000
  9
$USRTIMER
 70
           1
  9
$ANGBASE
 50
0.0
  9
$ANGDIR
 70
           0
  9
$PDMODE
 70
           2
  9
$PDSIZE
 40
0.5
  9
$PLINEWID
 40
0.0
  9
$COORDS
 70
           0
  9
$SPLFRAME
 70
           0
  9
$SPLINETYPE
 70
           6
  9
$SPLINESEGS
 70
           8
  9
$ATTDIA
 70
           0
  9
$ATTREQ
 70
           1
  9
$HANDLING
 70
           1
  9
$HANDSEED
  5
90
  9
$SURFTAB1
 70
           6
  9
$SURFTAB2
 70
           6
  9
$SURFTYPE
 70
           6
  9
$SURFU
 70
           6
  9
$SURFV
 70
           6
  9
$UCSNAME
  2

  9
$UCSORG
 10
0.0
 20
0.0
 30
0.0
  9
$UCSXDIR
 10
1.0
 20
0.0
 30
0.0
  9
$UCSYDIR
 10
0.0
 20
1.0
 30
0.0
  9
$PUCSNAME
  2

  9
$PUCSORG
 10
0.0
 20
0.0
 30
0.0
  9
$PUCSXDIR
 10
1.0
 20
0.0
 30
0.0
  9
$PUCSYDIR
 10
0.0
 20
1.0
 30
0.0
  9
$USERI1
 70
           0
  9
$USERI2
 70
           0
  9
$USERI3
 70
           0
  9
$USERI4
 70
           0
  9
$USERI5
 70
           0
  9
$USERR1
 40
0.0
  9
$USERR2
 40
0.0
  9
$USERR3
 40
0.0
  9
$USERR4
 40
0.0
  9
$USERR5
 40
0.0
  9
$WORLDVIEW
 70
           1
  9
$SHADEDGE
 70
           3
  9
$SHADEDIF
 70
          70
  9
$TILEMODE
 70
           1
  9
$MAXACTVP
 70
          16
  9
$PINSBASE
 10
0.0
 20
0.0
 30
0.0
  9
$PLIMCHECK
 70
           0
  9
$PEXTMIN
 10
1.000000000000E+20
 20
1.000000000000E+20
 30
1.000000000000E+20
  9
$PEXTMAX
 10
-1.000000000000E+20
 20
-1.000000000000E+20
 30
-1.000000000000E+20
  9
$PLIMMIN
 10
0.0
 20
0.0
  9
$PLIMMAX
 10
12.0
 20
9.0
  9
$UNITMODE
 70
           0
  9
$VISRETAIN
 70
           0
  9
$PLINEGEN
 70
           1
  9
$PSLTSCALE
 70
           0
  9
$TREEDEPTH
 70
        3020
  9
$DWGCODEPAGE
  3
dos850
  0
ENDSEC
  0
SECTION
  2
TABLES
  0
TABLE
  2
VPORT
 70
           1
  0
VPORT
  2
*ACTIVE
 70
           0
 10
0.0
 20
0.0
 11
1.0
 21
1.0
 12
6.591288
 22
4.579184
 13
0.0
 23
0.0
 14
1.0
 24
1.0
 15
0.0
 25
0.0
 16
0.0
 26
0.0
 36
1.0
 17
0.0
 27
0.0
 37
0.0
 40
9.158369
 41
0.688564
 42
50.0
 43
0.0
 44
0.0
 50
0.0
 51
0.0
 71
           0
 72
         100
 73
           1
 74
           1
 75
           0
 76
           0
 77
           0
 78
           0
  0
ENDTAB
  0
TABLE
  2
LTYPE
 70
           4
  0
LTYPE
  2
CONTINUOUS
 70
          64
  3
Solid line
 72
          65
 73
           0
 40
0.0
  0
LTYPE
  2
AUSGEZOGEN
 70
           0
  3

 72
          65
 73
           2
 40
0.5
 49
0.25
 49
-0.25
  0
LTYPE
  2
VERDECKT
 70
           0
  3

 72
          65
 73
           2
 40
0.375
 49
0.25
 49
-0.125
  0
LTYPE
  2
STRICHPUNKT
 70
           0
  3

 72
          65
 73
           4
 40
1.0
 49
0.5
 49
-0.25
 49
0.0
 49
-0.25
  0
ENDTAB
  0
TABLE
  2
LAYER
 70
           5
  0
LAYER
  2
0
 70
           0
 62
           7
  6
CONTINUOUS
  0
LAYER
  2
ZEICHNUNG
 70
           0
 62
           7
  6
CONTINUOUS
  0
LAYER
  2
BEMAßUNG
 70
           0
 62
           7
  6
CONTINUOUS
  0
LAYER
  2
UNSICHTBARE
 70
           0
 62
           7
  6
CONTINUOUS
  0
LAYER
  2
MITTELLINIEN
 70
           0
 62
           7
  6
CONTINUOUS
  0
ENDTAB
  0
TABLE
  2
STYLE
 70
           1
  0
STYLE
  2
TXT
 70
           0
 40
3.5
 41
1.0
 50
0.0
 71
           0
 42
3.5
  3
TXT
  4

  0
ENDTAB
  0
TABLE
  2
VIEW
 70
           0
  0
ENDTAB
  0
TABLE
  2
UCS
 70
           0
  0
ENDTAB
  0
TABLE
  2
APPID
 70
           2
  0
APPID
  2
ACAD
 70
           0
  0
APPID
  2
MegaCADPntStyle
 70
           0
  0
ENDTAB
  0
TABLE
  2
DIMSTYLE
 70
           1
  0
DIMSTYLE
  2
STANDARD
 70
           0
  3

  4

  5

  6

  7

 40
1.0
 41
0.18
 42
0.0625
 43
0.38
 44
0.18
 45
0.0
 46
0.0
 47
0.0
 48
0.0
 71
           0
 72
           0
 73
           1
 74
           1
 75
           0
 76
           0
 77
           0
 78
           0
140
0.18
141
0.09
142
0.0
143
25.4
144
1.0
145
0.0
146
1.0
147
0.09
170
           0
171
           2
172
           0
173
           0
174
           0
175
           0
176
           0
177
           0
178
           0
  0
ENDTAB
  0
ENDSEC
  0
SECTION
  2
BLOCKS
  0
BLOCK
  8
0
  5
77
  2
ELIPPSE
 70
          64
 10
0.0
 20
0.0
 30
0.0
  3
ELIPPSE
  0
CIRCLE
  8
0
  6
BYBLOCK
 62
           0
  5
78
 10
0.0
 20
0.0
 30
0.0
 40
1.0
  0
ENDBLK
  8
0
  6
BYBLOCK
 62
           0
  5
79
  0
BLOCK
  8
0
  5
7A
  2
*X1
 70
          65
 10
0.0
 20
0.0
 30
0.0
  3
*X1
  0
LINE
  8
0
  6
BYBLOCK
 62
           0
  5
7B
 10
184.110879516602
 20
579.56444416487
 30
0.0
 11
181.243355501648
 21
582.431968179823
 31
0.0
  0
LINE
  8
0
  6
BYBLOCK
 62
           0
  5
7C
 10
183.079917451215
 20
574.231445199577
 30
0.0
 11
180.610879516602
 21
576.700483134191
 31
0.0
  0
LINE
  8
0
  6
BYBLOCK
 62
           0
  5
7D
 10
183.043597022045
 20
567.903804598068
 30
0.0
 11
180.610879516602
 21
570.336522103512
 31
0.0
  0
LINE
  8
0
  6
BYBLOCK
 62
           0
  5
7E
 10
184.110879516602
 20
560.472561072833
 30
0.0
 11
180.610879516602
 21
563.972561072833
 31
0.0
  0
LINE
  8
0
  6
BYBLOCK
 62
           0
  5
7F
 10
160.610879516602
 20
577.608600042154
 30
0.0
 11
157.110879516602
 21
581.108600042154
 31
0.0
  0
LINE
  8
0
  6
BYBLOCK
 62
           0
  5
80
 10
160.610879516602
 20
571.244639011475
 30
0.0
 11
158.005774967257
 21
573.84974356082
 31
0.0
  0
LINE
  8
0
  6
BYBLOCK
 62
           0
  5
81
 10
160.610879516602
 20
564.880677980796
 30
0.0
 11
158.298787406388
 21
567.192770091009
 31
0.0
  0
LINE
  8
0
  6
BYBLOCK
 62
           0
  5
82
 10
159.295618892919
 20
559.8319775738
 30
0.0
 11
157.110879516602
 21
562.016716950117
 31
0.0
  0
ENDBLK
  8
0
  6
BYBLOCK
 62
           0
  5
83
  0
BLOCK
  8
0
  5
84
  2
*X2
 70
          65
 10
0.0
 20
0.0
 30
0.0
  3
*X2
  0
LINE
  8
0
  6
BYBLOCK
 62
           0
  5
85
 10
191.722223915324
 20
560.831963694702
 30
0.0
 11
196.409882319189
 21
565.519622098567
 31
0.0
  0
LINE
  8
0
  6
BYBLOCK
 62
           0
  5
86
 10
190.875198541952
 20
566.348899352008
 30
0.0
 11
194.237970005433
 21
569.711670815489
 31
0.0
  0
LINE
  8
0
  6
BYBLOCK
 62
           0
  5
87
 10
189.710879516602
 20
571.548541357337
 30
0.0
 11
196.610879516602
 21
578.448541357337
 31
0.0
  0
LINE
  8
0
  6
BYBLOCK
 62
           0
  5
88
 10
189.870834184574
 20
578.072457055989
 30
0.0
 11
193.23034017779
 21
581.431963049204
 31
0.0
  0
LINE
  8
0
  6
BYBLOCK
 62
           0
  5
89
 10
147.174515767693
 20
560.831982761823
 30
0.0
 11
150.991916622204
 21
564.649383616334
 31
0.0
  0
LINE
  8
0
  6
BYBLOCK
 62
           0
  5
8A
 10
144.610879516602
 20
564.632307541411
 30
0.0
 11
151.510879516602
 21
571.532307541411
 31
0.0
  0
LINE
  8
0
  6
BYBLOCK
 62
           0
  5
8B
 10
146.833805712952
 20
573.219194768441
 30
0.0
 11
150.684413947805
 21
577.069803003294
 31
0.0
  0
LINE
  8
0
  6
BYBLOCK
 62
           0
  5
8C
 10
144.610879516602
 20
577.360229602769
 30
0.0
 11
148.68263203016
 21
581.431982116327
 31
0.0
  0
ENDBLK
  8
0
  6
BYBLOCK
 62
           0
  5
8D
  0
ENDSEC
  0
SECTION
  2
ENTITIES
  0
LINE
  8
BEMAßUNG
  6
STRICHPUNKT
 62
           2
  5
28
 10
211.307435308719
 20
571.131990149458
 30
0.0
 11
192.937035625159
 21
571.131982286638
 31
0.0
  0
LINE
  8
BEMAßUNG
  6
STRICHPUNKT
 62
           2
  5
29
 10
170.610879516602
 20
552.400002341867
 30
0.0
 11
170.610879516602
 21
587.400002341867
 31
0.0
  0
LINE
  8
BEMAßUNG
  6
STRICHPUNKT
 62
           2
  5
2A
 10
130.000002624588
 20
571.131990112787
 30
0.0
 11
148.541906394514
 21
571.131982176559
 31
0.0
  0
CIRCLE
  8
UNSICHTBARE
  6
VERDECKT
 62
           2
  5
2B
 10
202.110879516602
 20
571.131986213188
 30
0.0
 40
8.0
  0
CIRCLE
  8
UNSICHTBARE
  6
VERDECKT
 62
           2
  5
2C
 10
139.110879516601
 20
571.13199306144
 30
0.0
 40
8.0
  0
LINE
  8
BEMAßUNG
  6
STRICHPUNKT
 62
           2
  5
2D
 10
139.110879516601
 20
561.490247275847
 30
0.0
 11
139.110879516601
 21
580.78082751727
 31
0.0
  0
LINE
  8
ZEICHNUNG
  6
AUSGEZOGEN
 62
           1
  5
2E
 10
144.610879516602
 20
576.94146808075
 30
0.0
 11
144.610879516602
 21
580.431983431086
 31
0.0
  0
LINE
  8
ZEICHNUNG
  6
AUSGEZOGEN
 62
           1
  5
2F
 10
144.610879516602
 20
561.831983431084
 30
0.0
 11
144.610879516602
 21
565.322518042129
 31
0.0
  0
LINE
  8
ZEICHNUNG
  6
AUSGEZOGEN
 62
           1
  5
30
 10
196.610879516602
 20
576.941461232498
 30
0.0
 11
196.610879516602
 21
580.431962030296
 31
0.0
  0
LINE
  8
ZEICHNUNG
  6
AUSGEZOGEN
 62
           1
  5
31
 10
196.610879516602
 20
561.831962030296
 30
0.0
 11
196.610879516602
 21
565.322511193877
 31
0.0
  0
LINE
  8
ZEICHNUNG
  6
AUSGEZOGEN
 62
           1
  5
32
 10
184.110879516602
 20
581.431966952478
 30
0.0
 11
195.610879944617
 21
581.431962030296
 31
0.0
  0
LINE
  8
ZEICHNUNG
  6
AUSGEZOGEN
 62
           1
  5
33
 10
145.610879944617
 20
581.431983431086
 30
0.0
 11
157.110879516602
 21
581.431978508904
 31
0.0
  0
LINE
  8
ZEICHNUNG
  6
AUSGEZOGEN
 62
           1
  5
34
 10
184.110879516602
 20
560.831966952477
 30
0.0
 11
195.610879088586
 21
560.831962030296
 31
0.0
  0
LINE
  8
ZEICHNUNG
  6
AUSGEZOGEN
 62
           1
  5
35
 10
145.610879088586
 20
560.831983431084
 30
0.0
 11
157.110879516602
 21
560.831978508903
 31
0.0
  0
LINE
  8
BEMAßUNG
  6
STRICHPUNKT
 62
           2
  5
36
 10
202.110879516602
 20
561.490247275847
 30
0.0
 11
202.110879516602
 21
580.78082751727
 31
0.0
  0
ARC
  8
ZEICHNUNG
  6
AUSGEZOGEN
 62
           1
  5
37
 10
202.110879516602
 20
571.131986213188
 30
0.0
 40
8.0
 50
133.432536557797
 51
226.567463442202
  0
ARC
  8
ZEICHNUNG
  6
AUSGEZOGEN
 62
           1
  5
38
 10
139.110879516601
 20
571.131986213188
 30
0.0
 40
8.0
 50
313.432536557796
 51
46.567463442203
  0
LINE
  8
ZEICHNUNG
  6
AUSGEZOGEN
 62
           1
  5
39
 10
157.110879516602
 20
582.431978508904
 30
0.0
 11
184.110879516602
 21
582.431966952478
 31
0.0
  0
LINE
  8
ZEICHNUNG
  6
AUSGEZOGEN
 62
           1
  5
3A
 10
157.110879516602
 20
559.831978508903
 30
0.0
 11
184.110879516602
 21
559.831966952477
 31
0.0
  0
LINE
  8
ZEICHNUNG
  6
AUSGEZOGEN
 62
           1
  5
3B
 10
184.110879516602
 20
578.238551078765
 30
0.0
 11
184.110879516602
 21
582.431966952478
 31
0.0
  0
LINE
  8
ZEICHNUNG
  6
AUSGEZOGEN
 62
           1
  5
3C
 10
184.110879516602
 20
569.738551078765
 30
0.0
 11
184.110879516602
 21
572.525408335931
 31
0.0
  0
LINE
  8
ZEICHNUNG
  6
AUSGEZOGEN
 62
           1
  5
3D
 10
184.110879516602
 20
559.831966952477
 30
0.0
 11
184.110879516602
 21
564.02540833593
 31
0.0
  0
LINE
  8
ZEICHNUNG
  6
AUSGEZOGEN
 62
           1
  5
3E
 10
160.610879516602
 20
560.831977438863
 30
0.0
 11
160.610879516602
 21
582.431977010849
 31
0.0
  0
LINE
  8
ZEICHNUNG
  6
AUSGEZOGEN
 62
           1
  5
3F
 10
180.610879516602
 20
560.831968022517
 30
0.0
 11
180.610879516602
 21
582.431968450533
 31
0.0
  0
CIRCLE
  8
ZEICHNUNG
  6
AUSGEZOGEN
 62
           1
  5
40
 10
186.910879516602
 20
575.381979707348
 30
0.0
 40
4.0
  0
CIRCLE
  8
ZEICHNUNG
  6
AUSGEZOGEN
 62
           1
  5
41
 10
186.910879516602
 20
566.881979707347
 30
0.0
 40
4.0
  0
LINE
  8
ZEICHNUNG
  6
AUSGEZOGEN
 62
           1
  5
42
 10
189.710879516602
 20
578.238551078765
 30
0.0
 11
189.710879516602
 21
581.431964555589
 31
0.0
  0
LINE
  8
ZEICHNUNG
  6
AUSGEZOGEN
 62
           1
  5
43
 10
189.710879516602
 20
569.738551078765
 30
0.0
 11
189.710879516602
 21
572.525408335931
 31
0.0
  0
LINE
  8
ZEICHNUNG
  6
AUSGEZOGEN
 62
           1
  5
44
 10
189.710879516602
 20
560.831964555589
 30
0.0
 11
189.710879516602
 21
564.02540833593
 31
0.0
  0
LINE
  8
ZEICHNUNG
  6
AUSGEZOGEN
 62
           1
  5
45
 10
189.110879516602
 20
578.722638325046
 30
0.0
 11
189.110879516602
 21
580.231964812398
 31
0.0
  0
LINE
  8
ZEICHNUNG
  6
AUSGEZOGEN
 62
           1
  5
46
 10
184.710879516602
 20
578.722638325046
 30
0.0
 11
184.710879516602
 21
580.231966695668
 31
0.0
  0
LINE
  8
ZEICHNUNG
  6
AUSGEZOGEN
 62
           1
  5
47
 10
184.710879516602
 20
580.231966695668
 30
0.0
 11
189.110879516602
 21
580.231964812398
 31
0.0
  0
LINE
  8
MITTELLINIEN
  6
AUSGEZOGEN
 62
           2
  5
48
 10
184.410879516602
 20
581.031966824073
 30
0.0
 11
189.710879516602
 21
581.031964555589
 31
0.0
  0
LINE
  8
MITTELLINIEN
  6
AUSGEZOGEN
 62
           2
  5
49
 10
184.410879516602
 20
580.731966824073
 30
0.0
 11
189.710879516602
 21
580.731964555589
 31
0.0
  0
LINE
  8
MITTELLINIEN
  6
AUSGEZOGEN
 62
           2
  5
4A
 10
184.410879516602
 20
580.731966824073
 30
0.0
 11
184.410879516602
 21
581.031966824073
 31
0.0
  0
LINE
  8
BEMAßUNG
  6
STRICHPUNKT
 62
           2
  5
4B
 10
184.590838665095
 20
575.381979707348
 30
0.0
 11
189.230920368108
 21
575.381979707348
 31
0.0
  0
LINE
  8
BEMAßUNG
  6
STRICHPUNKT
 62
           2
  5
4C
 10
186.910879516602
 20
573.061938855842
 30
0.0
 11
186.910879516602
 21
577.702020558855
 31
0.0
  0
LINE
  8
ZEICHNUNG
  6
AUSGEZOGEN
 62
           1
  5
4D
 10
189.71088560005
 20
564.025410732821
 30
0.0
 11
189.710888333712
 21
560.831997255999
 31
0.0
  0
LINE
  8
ZEICHNUNG
  6
AUSGEZOGEN
 62
           1
  5
4E
 10
189.110886014444
 20
563.541322972922
 30
0.0
 11
189.110887306475
 21
562.03199648557
 31
0.0
  0
LINE
  8
ZEICHNUNG
  6
AUSGEZOGEN
 62
           1
  5
4F
 10
184.710886014446
 20
563.541319206383
 30
0.0
 11
184.710887306478
 21
562.031990835762
 31
0.0
  0
LINE
  8
ZEICHNUNG
  6
AUSGEZOGEN
 62
           1
  5
50
 10
184.710887306478
 20
562.031990835762
 30
0.0
 11
189.110887306475
 21
562.03199648557
 31
0.0
  0
LINE
  8
MITTELLINIEN
  6
AUSGEZOGEN
 62
           2
  5
51
 10
184.410887991304
 20
561.231990450548
 30
0.0
 11
189.7108879913
 21
561.231997255999
 31
0.0
  0
LINE
  8
MITTELLINIEN
  6
AUSGEZOGEN
 62
           2
  5
52
 10
184.410887734494
 20
561.531990450548
 30
0.0
 11
189.71088773449
 21
561.531997255998
 31
0.0
  0
LINE
  8
MITTELLINIEN
  6
AUSGEZOGEN
 62
           2
  5
53
 10
184.410887734494
 20
561.531990450548
 30
0.0
 11
184.410887991304
 21
561.231990450548
 31
0.0
  0
LINE
  8
BEMAßUNG
  6
STRICHPUNKT
 62
           2
  5
54
 10
184.59084230323
 20
566.881977721321
 30
0.0
 11
189.230924006241
 21
566.881981693377
 31
0.0
  0
LINE
  8
BEMAßUNG
  6
STRICHPUNKT
 62
           2
  5
55
 10
186.910881168707
 20
569.202020558855
 30
0.0
 11
186.910885140764
 21
564.561938855844
 31
0.0
  0
LINE
  8
ZEICHNUNG
  6
AUSGEZOGEN
 62
           1
  5
56
 10
157.110879516602
 20
578.238551078765
 30
0.0
 11
157.110879516602
 21
582.431966952478
 31
0.0
  0
LINE
  8
ZEICHNUNG
  6
AUSGEZOGEN
 62
           1
  5
57
 10
157.110879516602
 20
569.738551078765
 30
0.0
 11
157.110879516602
 21
572.525408335931
 31
0.0
  0
LINE
  8
ZEICHNUNG
  6
AUSGEZOGEN
 62
           1
  5
58
 10
157.110879516602
 20
559.831966952477
 30
0.0
 11
157.110879516602
 21
564.02540833593
 31
0.0
  0
CIRCLE
  8
ZEICHNUNG
  6
AUSGEZOGEN
 62
           1
  5
59
 10
154.310879516602
 20
575.381979707348
 30
0.0
 40
4.0
  0
CIRCLE
  8
ZEICHNUNG
  6
AUSGEZOGEN
 62
           1
  5
5A
 10
154.310879516602
 20
566.881979707347
 30
0.0
 40
4.0
  0
LINE
  8
ZEICHNUNG
  6
AUSGEZOGEN
 62
           1
  5
5B
 10
151.510879516602
 20
578.238551078765
 30
0.0
 11
151.510879516602
 21
581.431964555589
 31
0.0
  0
LINE
  8
ZEICHNUNG
  6
AUSGEZOGEN
 62
           1
  5
5C
 10
151.510879516602
 20
569.738551078765
 30
0.0
 11
151.510879516602
 21
572.525408335931
 31
0.0
  0
LINE
  8
ZEICHNUNG
  6
AUSGEZOGEN
 62
           1
  5
5D
 10
151.510879516602
 20
560.831964555589
 30
0.0
 11
151.510879516602
 21
564.02540833593
 31
0.0
  0
LINE
  8
ZEICHNUNG
  6
AUSGEZOGEN
 62
           1
  5
5E
 10
152.110879516602
 20
578.722638325046
 30
0.0
 11
152.110879516602
 21
580.231964812398
 31
0.0
  0
LINE
  8
ZEICHNUNG
  6
AUSGEZOGEN
 62
           1
  5
5F
 10
156.510879516602
 20
578.722638325046
 30
0.0
 11
156.510879516602
 21
580.231966695668
 31
0.0
  0
LINE
  8
ZEICHNUNG
  6
AUSGEZOGEN
 62
           1
  5
60
 10
156.510879516602
 20
580.231966695668
 30
0.0
 11
152.110879516602
 21
580.231964812398
 31
0.0
  0
LINE
  8
MITTELLINIEN
  6
AUSGEZOGEN
 62
           2
  5
61
 10
156.810879516602
 20
581.031966824073
 30
0.0
 11
151.510879516602
 21
581.031964555589
 31
0.0
  0
LINE
  8
MITTELLINIEN
  6
AUSGEZOGEN
 62
           2
  5
62
 10
156.810879516602
 20
580.731966824073
 30
0.0
 11
151.510879516602
 21
580.731964555589
 31
0.0
  0
LINE
  8
MITTELLINIEN
  6
AUSGEZOGEN
 62
           2
  5
63
 10
156.810879516602
 20
580.731966824073
 30
0.0
 11
156.810879516602
 21
581.031966824073
 31
0.0
  0
LINE
  8
BEMAßUNG
  6
STRICHPUNKT
 62
           2
  5
64
 10
156.630920368108
 20
575.381979707348
 30
0.0
 11
151.990838665095
 21
575.381979707348
 31
0.0
  0
LINE
  8
BEMAßUNG
  6
STRICHPUNKT
 62
           2
  5
65
 10
154.310879516602
 20
573.061938855842
 30
0.0
 11
154.310879516602
 21
577.702020558855
 31
0.0
  0
LINE
  8
ZEICHNUNG
  6
AUSGEZOGEN
 62
           1
  5
66
 10
151.510873433153
 20
564.025410732821
 30
0.0
 11
151.510870699491
 21
560.831997255999
 31
0.0
  0
LINE
  8
ZEICHNUNG
  6
AUSGEZOGEN
 62
           1
  5
67
 10
152.110873018759
 20
563.541322972922
 30
0.0
 11
152.110871726728
 21
562.03199648557
 31
0.0
  0
LINE
  8
ZEICHNUNG
  6
AUSGEZOGEN
 62
           1
  5
68
 10
156.510873018758
 20
563.541319206383
 30
0.0
 11
156.510871726725
 21
562.031990835762
 31
0.0
  0
LINE
  8
ZEICHNUNG
  6
AUSGEZOGEN
 62
           1
  5
69
 10
156.510871726725
 20
562.031990835762
 30
0.0
 11
152.110871726728
 21
562.03199648557
 31
0.0
  0
LINE
  8
MITTELLINIEN
  6
AUSGEZOGEN
 62
           2
  5
6A
 10
156.8108710419
 20
561.231990450548
 30
0.0
 11
151.510871041903
 21
561.231997255999
 31
0.0
  0
LINE
  8
MITTELLINIEN
  6
AUSGEZOGEN
 62
           2
  5
6B
 10
156.810871298709
 20
561.531990450548
 30
0.0
 11
151.510871298713
 21
561.531997255998
 31
0.0
  0
LINE
  8
MITTELLINIEN
  6
AUSGEZOGEN
 62
           2
  5
6C
 10
156.810871298709
 20
561.531990450548
 30
0.0
 11
156.8108710419
 21
561.231990450548
 31
0.0
  0
LINE
  8
BEMAßUNG
  6
STRICHPUNKT
 62
           2
  5
6D
 10
156.630916729973
 20
566.881977721321
 30
0.0
 11
151.990835026962
 21
566.881981693377
 31
0.0
  0
LINE
  8
BEMAßUNG
  6
STRICHPUNKT
 62
           2
  5
6E
 10
154.310877864496
 20
569.202020558855
 30
0.0
 11
154.31087389244
 21
564.561938855844
 31
0.0
  0
ARC
  8
ZEICHNUNG
  6
AUSGEZOGEN
 62
           1
  5
6F
 10
195.610879516602
 20
580.431962030296
 30
0.0
 40
1.0
 50
0.0
 51
89.999975476501
  0
ARC
  8
ZEICHNUNG
  6
AUSGEZOGEN
 62
           1
  5
70
 10
195.610879516602
 20
561.831962030296
 30
0.0
 40
1.0
 50
269.999975476502
 51
0.0
  0
ARC
  8
ZEICHNUNG
  6
AUSGEZOGEN
 62
           1
  5
71
 10
145.610879516602
 20
561.831983431084
 30
0.0
 40
1.0
 50
180.0
 51
269.999975476502
  0
ARC
  8
ZEICHNUNG
  6
AUSGEZOGEN
 62
           1
  5
72
 10
145.610879516602
 20
580.431983431086
 30
0.0
 40
1.0
 50
89.999975476501
 51
180.0
  0
ARC
  8
ZEICHNUNG
  6
AUSGEZOGEN
 62
           1
  5
73
 10
159.610879516602
 20
560.831977438863
 30
0.0
 40
1.0
 50
269.999975476502
 51
0.0
  0
ARC
  8
ZEICHNUNG
  6
AUSGEZOGEN
 62
           1
  5
74
 10
181.610879516602
 20
560.831968022517
 30
0.0
 40
1.0
 50
180.0
 51
269.999975476502
  0
INSERT
  8
MITTELLINIEN
  6
AUSGEZOGEN
 62
           2
  5
75
  2
*X1
 10
0.0
 20
0.0
 30
0.0
  0
INSERT
  8
MITTELLINIEN
  6
AUSGEZOGEN
 62
           2
  5
76
  2
*X2
 10
0.0
 20
0.0
 30
0.0
  0
ENDSEC
  0
EOF
