  0
SECTION
  2
HEADER
  9
$ACADVER
  1
AC1009
  9
$INSBASE
 10
0.0
 20
0.0
 30
0.0
  9
$EXTMIN
 10
-104.25
 20
-630.268036509196
 30
0.0
  9
$EXTMAX
 10
225.0
 20
-480.0
 30
0.0
  9
$LIMMIN
 10
-104.25
 20
-630.268036509196
  9
$LIMMAX
 10
225.0
 20
-480.0
  9
$ORTHOMODE
 70
           0
  9
$REGENMODE
 70
           1
  9
$FILLMODE
 70
           1
  9
$QTEXTMODE
 70
           0
  9
$MIRRTEXT
 70
           1
  9
$DRAGMODE
 70
           2
  9
$LTSCALE
 40
5.0
  9
$OSMODE
 70
           0
  9
$ATTMODE
 70
           1
  9
$TEXTSIZE
 40
0.2
  9
$TRACEWID
 40
0.05
  9
$TEXTSTYLE
  7
TXT
  9
$CLAYER
  8
0
  9
$CELTYPE
  6
CONTINUOUS
  9
$CECOLOR
 62
         256
  9
$DIMSCALE
 40
1.0
  9
$DIMASZ
 40
3.5
  9
$DIMEXO
 40
0.0625
  9
$DIMDLI
 40
0.38
  9
$DIMRND
 40
0.0
  9
$DIMDLE
 40
0.0
  9
$DIMEXE
 40
0.18
  9
$DIMTP
 40
0.0
  9
$DIMTM
 40
0.0
  9
$DIMTXT
 40
3.5
  9
$DIMCEN
 40
0.09
  9
$DIMTSZ
 40
0.0
  9
$DIMTOL
 70
           0
  9
$DIMLIM
 70
           0
  9
$DIMTIH
 70
           1
  9
$DIMTOH
 70
           1
  9
$DIMSE1
 70
           0
  9
$DIMSE2
 70
           0
  9
$DIMTAD
 70
           0
  9
$DIMZIN
 70
           0
  9
$DIMBLK
  1

  9
$DIMASO
 70
           1
  9
$DIMSHO
 70
           1
  9
$DIMPOST
  1

  9
$DIMAPOST
  1

  9
$DIMALT
 70
           0
  9
$DIMALTD
 70
           2
  9
$DIMALTF
 40
25.4
  9
$DIMLFAC
 40
1.0
  9
$DIMTOFL
 70
           0
  9
$DIMTVP
 40
0.0
  9
$DIMTIX
 70
           0
  9
$DIMSOXD
 70
           0
  9
$DIMSAH
 70
           0
  9
$DIMBLK1
  1

  9
$DIMBLK2
  1

  9
$DIMSTYLE
  2
STANDARD
  9
$DIMCLRD
 70
           0
  9
$DIMCLRE
 70
           0
  9
$DIMCLRT
 70
           0
  9
$DIMTFAC
 40
1.0
  9
$DIMGAP
 40
0.09
  9
$LUNITS
 70
           2
  9
$LUPREC
 70
           2
  9
$AXISMODE
 70
           0
  9
$AXISUNIT
 10
0.0
 20
0.0
  9
$SKETCHINC
 40
0.1
  9
$FILLETRAD
 40
0.0
  9
$AUNITS
 70
           0
  9
$AUPREC
 70
           2
  9
$MENU
  1
acad
  9
$ELEVATION
 40
0.0
  9
$PELEVATION
 40
0.0
  9
$THICKNESS
 40
0.0
  9
$LIMCHECK
 70
           0
  9
$BLIPMODE
 70
           1
  9
$CHAMFERA
 40
0.0
  9
$CHAMFERB
 40
0.0
  9
$SKPOLY
 70
           0
  9
$TDCREATE
 40
0.000000000
  9
$TDUPDATE
 40
0.000000000
  9
$TDINDWG
 40
0.0000000000
  9
$TDUSRTIMER
 40
0.0000000000
  9
$USRTIMER
 70
           1
  9
$ANGBASE
 50
0.0
  9
$ANGDIR
 70
           0
  9
$PDMODE
 70
           2
  9
$PDSIZE
 40
0.5
  9
$PLINEWID
 40
0.0
  9
$COORDS
 70
           0
  9
$SPLFRAME
 70
           0
  9
$SPLINETYPE
 70
           6
  9
$SPLINESEGS
 70
           8
  9
$ATTDIA
 70
           0
  9
$ATTREQ
 70
           1
  9
$HANDLING
 70
           1
  9
$HANDSEED
  5
157
  9
$SURFTAB1
 70
           6
  9
$SURFTAB2
 70
           6
  9
$SURFTYPE
 70
           6
  9
$SURFU
 70
           6
  9
$SURFV
 70
           6
  9
$UCSNAME
  2

  9
$UCSORG
 10
0.0
 20
0.0
 30
0.0
  9
$UCSXDIR
 10
1.0
 20
0.0
 30
0.0
  9
$UCSYDIR
 10
0.0
 20
1.0
 30
0.0
  9
$PUCSNAME
  2

  9
$PUCSORG
 10
0.0
 20
0.0
 30
0.0
  9
$PUCSXDIR
 10
1.0
 20
0.0
 30
0.0
  9
$PUCSYDIR
 10
0.0
 20
1.0
 30
0.0
  9
$USERI1
 70
           0
  9
$USERI2
 70
           0
  9
$USERI3
 70
           0
  9
$USERI4
 70
           0
  9
$USERI5
 70
           0
  9
$USERR1
 40
0.0
  9
$USERR2
 40
0.0
  9
$USERR3
 40
0.0
  9
$USERR4
 40
0.0
  9
$USERR5
 40
0.0
  9
$WORLDVIEW
 70
           1
  9
$SHADEDGE
 70
           3
  9
$SHADEDIF
 70
          70
  9
$TILEMODE
 70
           1
  9
$MAXACTVP
 70
          16
  9
$PINSBASE
 10
0.0
 20
0.0
 30
0.0
  9
$PLIMCHECK
 70
           0
  9
$PEXTMIN
 10
1.000000000000E+20
 20
1.000000000000E+20
 30
1.000000000000E+20
  9
$PEXTMAX
 10
-1.000000000000E+20
 20
-1.000000000000E+20
 30
-1.000000000000E+20
  9
$PLIMMIN
 10
0.0
 20
0.0
  9
$PLIMMAX
 10
12.0
 20
9.0
  9
$UNITMODE
 70
           0
  9
$VISRETAIN
 70
           0
  9
$PLINEGEN
 70
           1
  9
$PSLTSCALE
 70
           0
  9
$TREEDEPTH
 70
        3020
  9
$DWGCODEPAGE
  3
dos850
  0
ENDSEC
  0
SECTION
  2
TABLES
  0
TABLE
  2
VPORT
 70
           1
  0
VPORT
  2
*ACTIVE
 70
           0
 10
0.0
 20
0.0
 11
1.0
 21
1.0
 12
6.591288
 22
4.579184
 13
0.0
 23
0.0
 14
1.0
 24
1.0
 15
0.0
 25
0.0
 16
0.0
 26
0.0
 36
1.0
 17
0.0
 27
0.0
 37
0.0
 40
9.158369
 41
0.688564
 42
50.0
 43
0.0
 44
0.0
 50
0.0
 51
0.0
 71
           0
 72
         100
 73
           1
 74
           1
 75
           0
 76
           0
 77
           0
 78
           0
  0
ENDTAB
  0
TABLE
  2
LTYPE
 70
           4
  0
LTYPE
  2
CONTINUOUS
 70
          64
  3
Solid line
 72
          65
 73
           0
 40
0.0
  0
LTYPE
  2
AUSGEZOGEN
 70
           0
  3

 72
          65
 73
           2
 40
0.5
 49
0.25
 49
-0.25
  0
LTYPE
  2
VERDECKT
 70
           0
  3

 72
          65
 73
           2
 40
0.375
 49
0.25
 49
-0.125
  0
LTYPE
  2
STRICHPUNKT
 70
           0
  3

 72
          65
 73
           4
 40
1.0
 49
0.5
 49
-0.25
 49
0.0
 49
-0.25
  0
ENDTAB
  0
TABLE
  2
LAYER
 70
           5
  0
LAYER
  2
0
 70
           0
 62
           7
  6
CONTINUOUS
  0
LAYER
  2
ZEICHNUNG
 70
           0
 62
           7
  6
CONTINUOUS
  0
LAYER
  2
BEMAßUNG
 70
           0
 62
           7
  6
CONTINUOUS
  0
LAYER
  2
UNSICHTBARE
 70
           0
 62
           7
  6
CONTINUOUS
  0
LAYER
  2
MITTELLINIEN
 70
           0
 62
           7
  6
CONTINUOUS
  0
ENDTAB
  0
TABLE
  2
STYLE
 70
           1
  0
STYLE
  2
TXT
 70
           0
 40
3.5
 41
1.0
 50
0.0
 71
           0
 42
3.5
  3
TXT
  4

  0
ENDTAB
  0
TABLE
  2
VIEW
 70
           0
  0
ENDTAB
  0
TABLE
  2
UCS
 70
           0
  0
ENDTAB
  0
TABLE
  2
APPID
 70
           2
  0
APPID
  2
ACAD
 70
           0
  0
APPID
  2
MegaCADPntStyle
 70
           0
  0
ENDTAB
  0
TABLE
  2
DIMSTYLE
 70
           1
  0
DIMSTYLE
  2
STANDARD
 70
           0
  3

  4

  5

  6

  7

 40
1.0
 41
0.18
 42
0.0625
 43
0.38
 44
0.18
 45
0.0
 46
0.0
 47
0.0
 48
0.0
 71
           0
 72
           0
 73
           1
 74
           1
 75
           0
 76
           0
 77
           0
 78
           0
140
0.18
141
0.09
142
0.0
143
25.4
144
1.0
145
0.0
146
1.0
147
0.09
170
           0
171
           2
172
           0
173
           0
174
           0
175
           0
176
           0
177
           0
178
           0
  0
ENDTAB
  0
ENDSEC
  0
SECTION
  2
BLOCKS
  0
BLOCK
  8
0
  5
143
  2
ELIPPSE
 70
          64
 10
0.0
 20
0.0
 30
0.0
  3
ELIPPSE
  0
CIRCLE
  8
0
  6
BYBLOCK
 62
           0
  5
144
 10
0.0
 20
0.0
 30
0.0
 40
1.0
  0
ENDBLK
  8
0
  6
BYBLOCK
 62
           0
  5
145
  0
BLOCK
  8
0
  5
146
  2
*X1
 70
          65
 10
0.0
 20
0.0
 30
0.0
  3
*X1
  0
LINE
  8
0
  6
BYBLOCK
 62
           0
  5
147
 10
198.752973498514
 20
-509.768021250407
 30
0.0
 11
200.609832763672
 21
-507.911161985249
 31
0.0
  0
LINE
  8
0
  6
BYBLOCK
 62
           0
  5
148
 10
194.510332811394
 20
-509.768021250407
 30
0.0
 11
202.610332811394
 21
-501.668021250407
 31
0.0
  0
LINE
  8
0
  6
BYBLOCK
 62
           0
  5
149
 10
195.709838867187
 20
-504.325874507495
 30
0.0
 11
200.109832763672
 21
-499.92588061101
 31
0.0
  0
LINE
  8
0
  6
BYBLOCK
 62
           0
  5
14A
 10
203.277020061585
 20
-496.758693313097
 30
0.0
 11
203.609832763672
 21
-496.42588061101
 31
0.0
  0
LINE
  8
0
  6
BYBLOCK
 62
           0
  5
14B
 10
186.025082388475
 20
-509.767990299088
 30
0.0
 11
188.859832874696
 21
-506.933239812867
 31
0.0
  0
LINE
  8
0
  6
BYBLOCK
 62
           0
  5
14C
 10
194.359832763672
 20
-501.433239923891
 30
0.0
 11
196.925051437156
 21
-498.868021250407
 31
0.0
  0
LINE
  8
0
  6
BYBLOCK
 62
           0
  5
14D
 10
197.109832763672
 20
-498.683239923891
 30
0.0
 11
201.463968516585
 21
-494.329104170978
 31
0.0
  0
LINE
  8
0
  6
BYBLOCK
 62
           0
  5
14E
 10
182.609832763672
 20
-508.940599236772
 30
0.0
 11
187.509843789833
 21
-504.040588210611
 31
0.0
  0
LINE
  8
0
  6
BYBLOCK
 62
           0
  5
14F
 10
197.109832763672
 20
-494.440599236772
 30
0.0
 11
197.282410750037
 21
-494.268021250407
 31
0.0
  0
LINE
  8
0
  6
BYBLOCK
 62
           0
  5
150
 10
182.609832763672
 20
-504.697958549652
 30
0.0
 11
188.439787018216
 21
-498.868004295108
 31
0.0
  0
LINE
  8
0
  6
BYBLOCK
 62
           0
  5
151
 10
180.299201901879
 20
-502.765948724326
 30
0.0
 11
181.397183577746
 21
-501.667967048459
 31
0.0
  0
LINE
  8
0
  6
BYBLOCK
 62
           0
  5
152
 10
183.109873340536
 20
-499.955277285669
 30
0.0
 11
186.109890699782
 21
-496.955259926423
 31
0.0
  0
LINE
  8
0
  6
BYBLOCK
 62
           0
  5
153
 10
182.125905498083
 20
-496.696604441002
 30
0.0
 11
184.554525940068
 21
-494.267983999018
 31
0.0
  0
ENDBLK
  8
0
  6
BYBLOCK
 62
           0
  5
154
  0
ENDSEC
  0
SECTION
  2
ENTITIES
  0
LINE
  8
ZEICHNUNG
  6
AUSGEZOGEN
 62
           1
  5
27
 10
-53.390182495117
 20
-484.768021250407
 30
0.0
 11
41.609817504883
 21
-484.768021250407
 31
0.0
  0
LINE
  8
ZEICHNUNG
  6
AUSGEZOGEN
 62
           1
  5
28
 10
-53.390182495117
 20
-505.768021250407
 30
0.0
 11
41.609817504883
 21
-505.768021250407
 31
0.0
  0
LINE
  8
ZEICHNUNG
  6
AUSGEZOGEN
 62
           1
  5
29
 10
41.609817504883
 20
-505.768021250407
 30
0.0
 11
41.609817504883
 21
-484.768021250407
 31
0.0
  0
LINE
  8
ZEICHNUNG
  6
AUSGEZOGEN
 62
           1
  5
2A
 10
-53.390182495117
 20
-505.768021250407
 30
0.0
 11
-53.390182495117
 21
-484.768021250407
 31
0.0
  0
LINE
  8
BEMAßUNG
  6
STRICHPUNKT
 62
           2
  5
2B
 10
-104.25
 20
-597.768021250407
 30
0.0
 11
225.0
 21
-597.768021250407
 31
0.0
  0
LINE
  8
ZEICHNUNG
  6
AUSGEZOGEN
 62
           1
  5
2C
 10
-97.640182495117
 20
-509.767972502131
 30
0.0
 11
-97.640182495117
 21
-494.267969780503
 31
0.0
  0
LINE
  8
ZEICHNUNG
  6
AUSGEZOGEN
 62
           1
  5
2D
 10
-97.640182495117
 20
-584.268081718162
 30
0.0
 11
-97.640182495117
 21
-611.267960782652
 31
0.0
  0
LINE
  8
BEMAßUNG
  6
STRICHPUNKT
 62
           2
  5
2E
 10
66.41630318491
 20
-513.811580519907
 30
0.0
 11
68.983045232445
 21
-484.473584668891
 31
0.0
  0
LINE
  8
BEMAßUNG
  6
STRICHPUNKT
 62
           2
  5
2F
 10
-5.890182495117
 20
-515.0
 30
0.0
 11
-5.890182495117
 21
-481.000003814697
 31
0.0
  0
LINE
  8
BEMAßUNG
  6
STRICHPUNKT
 62
           2
  5
30
 10
217.370393389927
 20
-613.079025231274
 30
0.0
 11
220.031872495319
 21
-582.658179853931
 31
0.0
  0
LINE
  8
BEMAßUNG
  6
STRICHPUNKT
 62
           2
  5
31
 10
-68.390182495117
 20
-515.0
 30
0.0
 11
-68.390182495117
 21
-490.0
 31
0.0
  0
LINE
  8
BEMAßUNG
  6
STRICHPUNKT
 62
           2
  5
32
 10
56.609817504883
 20
-515.0
 30
0.0
 11
56.609817504883
 21
-490.0
 31
0.0
  0
LINE
  8
BEMAßUNG
  6
STRICHPUNKT
 62
           2
  5
33
 10
181.609817504883
 20
-589.541672956135
 30
0.0
 11
181.609817504883
 21
-606.454718075126
 31
0.0
  0
LINE
  8
ZEICHNUNG
  6
AUSGEZOGEN
 62
           1
  5
34
 10
-53.390182495117
 20
-565.268036509196
 30
0.0
 11
41.609817504883
 21
-565.268036509196
 31
0.0
  0
LINE
  8
ZEICHNUNG
  6
AUSGEZOGEN
 62
           1
  5
35
 10
-53.390182495117
 20
-630.268036509196
 30
0.0
 11
41.609817504883
 21
-630.268036509196
 31
0.0
  0
LINE
  8
ZEICHNUNG
  6
AUSGEZOGEN
 62
           1
  5
36
 10
41.609817504883
 20
-565.268036509196
 30
0.0
 11
41.609817504883
 21
-630.268036509196
 31
0.0
  0
LINE
  8
ZEICHNUNG
  6
AUSGEZOGEN
 62
           1
  5
37
 10
-53.390182495117
 20
-565.268036509196
 30
0.0
 11
-53.390182495117
 21
-630.268036509196
 31
0.0
  0
LINE
  8
ZEICHNUNG
  6
AUSGEZOGEN
 62
           1
  5
38
 10
-53.390182495117
 20
-565.268021250407
 30
0.0
 11
41.609817504883
 21
-565.268021250407
 31
0.0
  0
LINE
  8
ZEICHNUNG
  6
AUSGEZOGEN
 62
           1
  5
39
 10
-53.390182495117
 20
-630.268021250407
 30
0.0
 11
41.609817504883
 21
-630.268021250407
 31
0.0
  0
LINE
  8
ZEICHNUNG
  6
AUSGEZOGEN
 62
           1
  5
3A
 10
41.609817504883
 20
-611.318039560954
 30
0.0
 11
41.609817504883
 21
-630.268021250407
 31
0.0
  0
LINE
  8
ZEICHNUNG
  6
AUSGEZOGEN
 62
           1
  5
3B
 10
41.609817504883
 20
-565.268021250407
 30
0.0
 11
41.609817504883
 21
-607.914414072673
 31
0.0
  0
LINE
  8
ZEICHNUNG
  6
AUSGEZOGEN
 62
           1
  5
3C
 10
-53.390182495117
 20
-565.268021250407
 30
0.0
 11
-53.390182495117
 21
-630.268021250407
 31
0.0
  0
LINE
  8
BEMAßUNG
  6
STRICHPUNKT
 62
           2
  5
3D
 10
-44.070790625678
 20
-576.768021250407
 30
0.0
 11
30.663223266602
 21
-576.768021250407
 31
0.0
  0
LINE
  8
BEMAßUNG
  6
STRICHPUNKT
 62
           2
  5
3E
 10
-5.890182495117
 20
-565.268021250407
 30
0.0
 11
-5.890182495117
 21
-630.268021250407
 31
0.0
  0
LINE
  8
BEMAßUNG
  6
STRICHPUNKT
 62
           2
  5
3F
 10
15.609817504883
 20
-565.268021250407
 30
0.0
 11
15.609817504883
 21
-630.268021250407
 31
0.0
  0
LINE
  8
BEMAßUNG
  6
STRICHPUNKT
 62
           2
  5
40
 10
-27.390182495117
 20
-565.268021250407
 30
0.0
 11
-27.390182495117
 21
-630.268021250407
 31
0.0
  0
LINE
  8
BEMAßUNG
  6
STRICHPUNKT
 62
           2
  5
41
 10
-62.5
 20
-575.268036509196
 30
0.0
 11
-42.5
 21
-575.268036509196
 31
0.0
  0
LINE
  8
ZEICHNUNG
  6
AUSGEZOGEN
 62
           1
  5
42
 10
-56.390182495117
 20
-570.268036509196
 30
0.0
 11
-56.390182495117
 21
-580.268036509196
 31
0.0
  0
LINE
  8
ZEICHNUNG
  6
AUSGEZOGEN
 62
           1
  5
43
 10
-56.390182495117
 20
-570.268036509196
 30
0.0
 11
-53.390182495117
 21
-570.268036509196
 31
0.0
  0
LINE
  8
ZEICHNUNG
  6
AUSGEZOGEN
 62
           1
  5
44
 10
-56.390182495117
 20
-580.268036509196
 30
0.0
 11
-53.390182495117
 21
-580.268036509196
 31
0.0
  0
LINE
  8
BEMAßUNG
  6
STRICHPUNKT
 62
           2
  5
45
 10
50.719635009766
 20
-575.268036509196
 30
0.0
 11
30.719635009766
 21
-575.268036509196
 31
0.0
  0
LINE
  8
ZEICHNUNG
  6
AUSGEZOGEN
 62
           1
  5
46
 10
44.609817504883
 20
-570.268036509196
 30
0.0
 11
44.609817504883
 21
-580.268036509196
 31
0.0
  0
LINE
  8
ZEICHNUNG
  6
AUSGEZOGEN
 62
           1
  5
47
 10
44.609817504883
 20
-570.268036509196
 30
0.0
 11
41.609817504883
 21
-570.268036509196
 31
0.0
  0
LINE
  8
ZEICHNUNG
  6
AUSGEZOGEN
 62
           1
  5
48
 10
44.609817504883
 20
-580.268036509196
 30
0.0
 11
41.609817504883
 21
-580.268036509196
 31
0.0
  0
LINE
  8
ZEICHNUNG
  6
AUSGEZOGEN
 62
           1
  5
49
 10
41.609817504883
 20
-592.268108193409
 30
0.0
 11
219.191112708318
 21
-592.268108193409
 31
0.0
  0
LINE
  8
ZEICHNUNG
  6
AUSGEZOGEN
 62
           1
  5
4A
 10
-97.640182495117
 20
-592.268108193409
 30
0.0
 11
-53.390182495117
 21
-592.268108193409
 31
0.0
  0
LINE
  8
ZEICHNUNG
  6
AUSGEZOGEN
 62
           1
  5
4B
 10
41.609817504883
 20
-588.019771401482
 30
0.0
 11
219.562794016452
 21
-588.019771401482
 31
0.0
  0
LINE
  8
ZEICHNUNG
  6
AUSGEZOGEN
 62
           1
  5
4C
 10
-97.640182495117
 20
-588.019771401482
 30
0.0
 11
-53.390182495117
 21
-588.019771401482
 31
0.0
  0
LINE
  8
ZEICHNUNG
  6
AUSGEZOGEN
 62
           1
  5
4D
 10
41.609817504883
 20
-585.768100545098
 30
0.0
 11
219.759789690377
 21
-585.768100545098
 31
0.0
  0
LINE
  8
ZEICHNUNG
  6
AUSGEZOGEN
 62
           1
  5
4E
 10
-97.640182495117
 20
-585.768100545098
 30
0.0
 11
-53.390182495117
 21
-585.768100545098
 31
0.0
  0
LINE
  8
ZEICHNUNG
  6
AUSGEZOGEN
 62
           1
  5
4F
 10
41.609817504883
 20
-584.268081718162
 30
0.0
 11
219.89102433281
 21
-584.268081718162
 31
0.0
  0
LINE
  8
ZEICHNUNG
  6
AUSGEZOGEN
 62
           1
  5
50
 10
-97.640182495117
 20
-584.268081718162
 30
0.0
 11
-53.390182495117
 21
-584.268081718162
 31
0.0
  0
LINE
  8
UNSICHTBARE
  6
VERDECKT
 62
           2
  5
51
 10
-53.390182495117
 20
-584.268081718162
 30
0.0
 11
41.609817504883
 21
-584.268081718162
 31
0.0
  0
LINE
  8
UNSICHTBARE
  6
VERDECKT
 62
           2
  5
52
 10
41.609817504883
 20
-592.268108193409
 30
0.0
 11
-53.390182495117
 21
-592.268108193409
 31
0.0
  0
LINE
  8
ZEICHNUNG
  6
AUSGEZOGEN
 62
           1
  5
53
 10
41.609817504883
 20
-603.517934307404
 30
0.0
 11
218.206880456706
 21
-603.517934307404
 31
0.0
  0
LINE
  8
ZEICHNUNG
  6
AUSGEZOGEN
 62
           1
  5
54
 10
41.609817504883
 20
-607.516271099332
 30
0.0
 11
217.857071314454
 21
-607.516271099332
 31
0.0
  0
LINE
  8
ZEICHNUNG
  6
AUSGEZOGEN
 62
           1
  5
55
 10
41.609817504883
 20
-609.767941955716
 30
0.0
 11
217.660075640528
 21
-609.767941955716
 31
0.0
  0
LINE
  8
ZEICHNUNG
  6
AUSGEZOGEN
 62
           1
  5
56
 10
-97.640182495117
 20
-609.767941955716
 30
0.0
 11
-53.390182495117
 21
-609.767941955716
 31
0.0
  0
LINE
  8
ZEICHNUNG
  6
AUSGEZOGEN
 62
           1
  5
57
 10
41.609817504883
 20
-611.267960782652
 30
0.0
 11
217.528840998096
 21
-611.267960782652
 31
0.0
  0
LINE
  8
ZEICHNUNG
  6
AUSGEZOGEN
 62
           1
  5
58
 10
-97.640182495117
 20
-611.267960782652
 30
0.0
 11
-53.390182495117
 21
-611.267960782652
 31
0.0
  0
LINE
  8
UNSICHTBARE
  6
VERDECKT
 62
           2
  5
59
 10
-53.390182495117
 20
-611.267960782652
 30
0.0
 11
41.609817504883
 21
-611.267960782652
 31
0.0
  0
LINE
  8
UNSICHTBARE
  6
VERDECKT
 62
           2
  5
5A
 10
41.609817504883
 20
-603.517934307404
 30
0.0
 11
-53.390182495117
 21
-603.267934307404
 31
0.0
  0
LINE
  8
ZEICHNUNG
  6
AUSGEZOGEN
 62
           1
  5
5B
 10
-97.640182495117
 20
-603.267934307404
 30
0.0
 11
-53.390182495117
 21
-603.267934307404
 31
0.0
  0
LINE
  8
ZEICHNUNG
  6
AUSGEZOGEN
 62
           1
  5
5C
 10
-97.640182495117
 20
-607.516271099332
 30
0.0
 11
-53.390182495117
 21
-607.516271099332
 31
0.0
  0
ARC
  8
MITTELLINIEN
  6
AUSGEZOGEN
 62
           2
  5
5D
 10
15.609817504883
 20
-576.768021250407
 30
0.0
 40
2.0
 50
24.79034062155
 51
289.497126634165
  0
CIRCLE
  8
ZEICHNUNG
  6
AUSGEZOGEN
 62
           1
  5
5E
 10
15.609817504883
 20
-576.768021250407
 30
0.0
 40
1.585
  0
ARC
  8
MITTELLINIEN
  6
AUSGEZOGEN
 62
           2
  5
5F
 10
-27.390182495117
 20
-576.768021250407
 30
0.0
 40
2.0
 50
24.79034062155
 51
289.497126634165
  0
CIRCLE
  8
ZEICHNUNG
  6
AUSGEZOGEN
 62
           1
  5
60
 10
-27.390182495117
 20
-576.768021250407
 30
0.0
 40
1.585
  0
LINE
  8
BEMAßUNG
  6
STRICHPUNKT
 62
           2
  5
61
 10
-15.492039132623
 20
-572.768021250407
 30
0.0
 11
4.163223266602
 21
-572.768021250407
 31
0.0
  0
LINE
  8
BEMAßUNG
  6
STRICHPUNKT
 62
           2
  5
62
 10
-35.890182495117
 20
-588.827796985016
 30
0.0
 11
-35.890182495117
 21
-605.075418411611
 31
0.0
  0
LINE
  8
BEMAßUNG
  6
STRICHPUNKT
 62
           2
  5
63
 10
24.109817504883
 20
-591.158219004313
 30
0.0
 11
24.109817504883
 21
-606.158219004313
 31
0.0
  0
ARC
  8
MITTELLINIEN
  6
AUSGEZOGEN
 62
           2
  5
64
 10
-35.890182495117
 20
-597.768021250407
 30
0.0
 40
2.5
 50
16.264561532556
 51
284.18796237198
  0
CIRCLE
  8
ZEICHNUNG
  6
AUSGEZOGEN
 62
           1
  5
65
 10
-35.890182495117
 20
-597.768021250407
 30
0.0
 40
1.78
  0
ARC
  8
MITTELLINIEN
  6
AUSGEZOGEN
 62
           2
  5
66
 10
24.109817504883
 20
-597.768021250407
 30
0.0
 40
2.5
 50
16.264561532556
 51
284.18796237198
  0
CIRCLE
  8
ZEICHNUNG
  6
AUSGEZOGEN
 62
           1
  5
67
 10
24.109817504883
 20
-597.768021250407
 30
0.0
 40
1.78
  0
ARC
  8
MITTELLINIEN
  6
AUSGEZOGEN
 62
           2
  5
68
 10
-5.890182495117
 20
-572.768021250407
 30
0.0
 40
2.5
 50
16.264561532556
 51
284.18796237198
  0
CIRCLE
  8
ZEICHNUNG
  6
AUSGEZOGEN
 62
           1
  5
69
 10
-5.890182495117
 20
-572.768021250407
 30
0.0
 40
1.78
  0
LINE
  8
BEMAßUNG
  6
STRICHPUNKT
 62
           2
  5
6A
 10
-44.070790625678
 20
-618.768021250407
 30
0.0
 11
30.663223266602
 21
-618.768021250407
 31
0.0
  0
LINE
  8
BEMAßUNG
  6
STRICHPUNKT
 62
           2
  5
6B
 10
-62.5
 20
-620.268021250407
 30
0.0
 11
-42.5
 21
-620.268021250407
 31
0.0
  0
LINE
  8
ZEICHNUNG
  6
AUSGEZOGEN
 62
           1
  5
6C
 10
-56.390182495117
 20
-625.268021250407
 30
0.0
 11
-56.390182495117
 21
-615.268021250407
 31
0.0
  0
LINE
  8
ZEICHNUNG
  6
AUSGEZOGEN
 62
           1
  5
6D
 10
-56.390182495117
 20
-625.268021250407
 30
0.0
 11
-53.390182495117
 21
-625.268021250407
 31
0.0
  0
LINE
  8
ZEICHNUNG
  6
AUSGEZOGEN
 62
           1
  5
6E
 10
-56.390182495117
 20
-615.268021250407
 30
0.0
 11
-53.390182495117
 21
-615.268021250407
 31
0.0
  0
LINE
  8
BEMAßUNG
  6
STRICHPUNKT
 62
           2
  5
6F
 10
50.719635009766
 20
-620.268021250407
 30
0.0
 11
30.719635009766
 21
-620.268021250407
 31
0.0
  0
LINE
  8
ZEICHNUNG
  6
AUSGEZOGEN
 62
           1
  5
70
 10
44.609817504883
 20
-625.268021250407
 30
0.0
 11
44.609817504883
 21
-615.268021250407
 31
0.0
  0
LINE
  8
ZEICHNUNG
  6
AUSGEZOGEN
 62
           1
  5
71
 10
44.609817504883
 20
-625.268021250407
 30
0.0
 11
41.609817504883
 21
-625.268021250407
 31
0.0
  0
LINE
  8
ZEICHNUNG
  6
AUSGEZOGEN
 62
           1
  5
72
 10
44.609817504883
 20
-615.268021250407
 30
0.0
 11
41.609817504883
 21
-615.268021250407
 31
0.0
  0
CIRCLE
  8
ZEICHNUNG
  6
AUSGEZOGEN
 62
           1
  5
73
 10
-27.390182495117
 20
-618.768021250407
 30
0.0
 40
7.0
  0
CIRCLE
  8
ZEICHNUNG
  6
AUSGEZOGEN
 62
           1
  5
74
 10
15.609817504883
 20
-618.768021250407
 30
0.0
 40
7.0
  0
CIRCLE
  8
MITTELLINIEN
  6
AUSGEZOGEN
 62
           2
  5
75
 10
-27.390182495117
 20
-618.768021250407
 30
0.0
 40
3.5
  0
ARC
  8
ZEICHNUNG
  6
AUSGEZOGEN
 62
           1
  5
76
 10
-27.390182495117
 20
-618.768021250407
 30
0.0
 40
2.0
 50
0.0
 51
0.0
  0
ARC
  8
MITTELLINIEN
  6
AUSGEZOGEN
 62
           2
  5
77
 10
-27.390182495117
 20
-618.768021250407
 30
0.0
 40
1.585
 50
20.419144732659
 51
289.32873024226
  0
LINE
  8
ZEICHNUNG
  6
AUSGEZOGEN
 62
           1
  5
78
 10
-30.890182495117
 20
-620.788747192571
 30
0.0
 11
-30.890182495117
 21
-616.747295308243
 31
0.0
  0
LINE
  8
ZEICHNUNG
  6
AUSGEZOGEN
 62
           1
  5
79
 10
-23.890182495117
 20
-620.788747192571
 30
0.0
 11
-23.890182495117
 21
-616.747295308243
 31
0.0
  0
LINE
  8
ZEICHNUNG
  6
AUSGEZOGEN
 62
           1
  5
7A
 10
-27.390182495117
 20
-614.72656936608
 30
0.0
 11
-30.890182495117
 21
-616.747295308243
 31
0.0
  0
LINE
  8
ZEICHNUNG
  6
AUSGEZOGEN
 62
           1
  5
7B
 10
-27.390182495117
 20
-622.809473134734
 30
0.0
 11
-23.890182495117
 21
-620.788747192571
 31
0.0
  0
LINE
  8
ZEICHNUNG
  6
AUSGEZOGEN
 62
           1
  5
7C
 10
-27.390182495117
 20
-622.809473134734
 30
0.0
 11
-30.890182495117
 21
-620.788747192571
 31
0.0
  0
LINE
  8
ZEICHNUNG
  6
AUSGEZOGEN
 62
           1
  5
7D
 10
-23.890182495117
 20
-616.747295308243
 30
0.0
 11
-27.390182495117
 21
-614.72656936608
 31
0.0
  0
CIRCLE
  8
ZEICHNUNG
  6
AUSGEZOGEN
 62
           1
  5
7E
 10
-27.390182495117
 20
-618.768021250407
 30
0.0
 40
4.5
  0
CIRCLE
  8
ZEICHNUNG
  6
AUSGEZOGEN
 62
           1
  5
7F
 10
15.609817504883
 20
-618.768021250407
 30
0.0
 40
4.5
  0
CIRCLE
  8
MITTELLINIEN
  6
AUSGEZOGEN
 62
           2
  5
80
 10
15.609817504883
 20
-618.768021250407
 30
0.0
 40
3.5
  0
ARC
  8
ZEICHNUNG
  6
AUSGEZOGEN
 62
           1
  5
81
 10
15.609817504883
 20
-618.768021250407
 30
0.0
 40
2.0
 50
0.0
 51
0.0
  0
ARC
  8
MITTELLINIEN
  6
AUSGEZOGEN
 62
           2
  5
82
 10
15.609817504883
 20
-618.768021250407
 30
0.0
 40
1.585
 50
20.876376937533
 51
292.985262389415
  0
LINE
  8
ZEICHNUNG
  6
AUSGEZOGEN
 62
           1
  5
83
 10
12.109817504883
 20
-620.788747192571
 30
0.0
 11
12.109817504883
 21
-616.747295308243
 31
0.0
  0
LINE
  8
ZEICHNUNG
  6
AUSGEZOGEN
 62
           1
  5
84
 10
19.109817504883
 20
-620.788747192571
 30
0.0
 11
19.109817504883
 21
-616.747295308243
 31
0.0
  0
LINE
  8
ZEICHNUNG
  6
AUSGEZOGEN
 62
           1
  5
85
 10
15.609817504883
 20
-614.72656936608
 30
0.0
 11
12.109817504883
 21
-616.747295308243
 31
0.0
  0
LINE
  8
ZEICHNUNG
  6
AUSGEZOGEN
 62
           1
  5
86
 10
15.609817504883
 20
-622.809473134734
 30
0.0
 11
19.109817504883
 21
-620.788747192571
 31
0.0
  0
LINE
  8
ZEICHNUNG
  6
AUSGEZOGEN
 62
           1
  5
87
 10
15.609817504883
 20
-622.809473134734
 30
0.0
 11
12.109817504883
 21
-620.788747192571
 31
0.0
  0
LINE
  8
ZEICHNUNG
  6
AUSGEZOGEN
 62
           1
  5
88
 10
19.109817504883
 20
-616.747295308243
 30
0.0
 11
15.609817504883
 21
-614.72656936608
 31
0.0
  0
LINE
  8
BEMAßUNG
  6
STRICHPUNKT
 62
           2
  5
89
 10
-15.492039132623
 20
-622.768021250407
 30
0.0
 11
4.163223266602
 21
-622.768021250407
 31
0.0
  0
ARC
  8
MITTELLINIEN
  6
AUSGEZOGEN
 62
           2
  5
8A
 10
-5.890182495117
 20
-622.768021250407
 30
0.0
 40
2.5
 50
75.812037628019
 51
343.735438467443
  0
CIRCLE
  8
ZEICHNUNG
  6
AUSGEZOGEN
 62
           1
  5
8B
 10
-5.890182495117
 20
-622.768021250407
 30
0.0
 40
1.78
  0
CIRCLE
  8
ZEICHNUNG
  6
AUSGEZOGEN
 62
           1
  5
8C
 10
181.609817504883
 20
-597.768021250407
 30
0.0
 40
2.75
  0
CIRCLE
  8
UNSICHTBARE
  6
VERDECKT
 62
           2
  5
8D
 10
15.609817504883
 20
-576.768021250407
 30
0.0
 40
8.5
  0
CIRCLE
  8
UNSICHTBARE
  6
VERDECKT
 62
           2
  5
8E
 10
-27.390182495117
 20
-576.768021250407
 30
0.0
 40
8.5
  0
CIRCLE
  8
UNSICHTBARE
  6
VERDECKT
 62
           2
  5
8F
 10
-27.390182495117
 20
-618.768021250407
 30
0.0
 40
8.5
  0
CIRCLE
  8
UNSICHTBARE
  6
VERDECKT
 62
           2
  5
90
 10
15.609817504883
 20
-618.768021250407
 30
0.0
 40
8.5
  0
LINE
  8
BEMAßUNG
  6
STRICHPUNKT
 62
           2
  5
91
 10
-68.390182495117
 20
-588.238439873109
 30
0.0
 11
-68.390182495117
 21
-607.507951158152
 31
0.0
  0
CIRCLE
  8
ZEICHNUNG
  6
AUSGEZOGEN
 62
           1
  5
92
 10
-68.390182495117
 20
-597.768021250407
 30
0.0
 40
2.75
  0
LINE
  8
BEMAßUNG
  6
STRICHPUNKT
 62
           2
  5
93
 10
56.609817504883
 20
-589.140056414622
 30
0.0
 11
56.609817504883
 21
-606.454718075126
 31
0.0
  0
CIRCLE
  8
ZEICHNUNG
  6
AUSGEZOGEN
 62
           1
  5
94
 10
56.609817504883
 20
-597.768021250407
 30
0.0
 40
2.75
  0
CIRCLE
  8
UNSICHTBARE
  6
VERDECKT
 62
           2
  5
95
 10
-5.890182495117
 20
-597.768021250407
 30
0.0
 40
2.75
  0
LINE
  8
BEMAßUNG
  6
STRICHPUNKT
 62
           2
  5
96
 10
119.109817504883
 20
-589.140056414622
 30
0.0
 11
119.109817504883
 21
-606.454718075126
 31
0.0
  0
CIRCLE
  8
ZEICHNUNG
  6
AUSGEZOGEN
 62
           1
  5
97
 10
119.109817504883
 20
-597.768021250407
 30
0.0
 40
2.75
  0
LINE
  8
BEMAßUNG
  6
STRICHPUNKT
 62
           2
  5
98
 10
33.25631805481
 20
-493.768021250407
 30
0.0
 11
49.420743563522
 21
-493.768021250407
 31
0.0
  0
LINE
  8
BEMAßUNG
  6
STRICHPUNKT
 62
           2
  5
99
 10
-60.020366847924
 20
-493.768021250407
 30
0.0
 11
-43.325960174991
 21
-493.768021250407
 31
0.0
  0
LINE
  8
ZEICHNUNG
  6
AUSGEZOGEN
 62
           1
  5
9A
 10
-56.390182495117
 20
-488.768021250407
 30
0.0
 11
-56.390182495117
 21
-498.768021250407
 31
0.0
  0
LINE
  8
ZEICHNUNG
  6
AUSGEZOGEN
 62
           1
  5
9B
 10
-56.390182495117
 20
-488.768021250407
 30
0.0
 11
-53.390182495117
 21
-488.768021250407
 31
0.0
  0
LINE
  8
ZEICHNUNG
  6
AUSGEZOGEN
 62
           1
  5
9C
 10
-56.390182495117
 20
-498.768021250407
 30
0.0
 11
-53.390182495117
 21
-498.768021250407
 31
0.0
  0
LINE
  8
ZEICHNUNG
  6
AUSGEZOGEN
 62
           1
  5
9D
 10
44.609817504883
 20
-488.768021250407
 30
0.0
 11
44.609817504883
 21
-498.768021250407
 31
0.0
  0
LINE
  8
ZEICHNUNG
  6
AUSGEZOGEN
 62
           1
  5
9E
 10
44.609817504883
 20
-488.768021250407
 30
0.0
 11
41.609817504883
 21
-488.768021250407
 31
0.0
  0
LINE
  8
ZEICHNUNG
  6
AUSGEZOGEN
 62
           1
  5
9F
 10
44.609817504883
 20
-498.768021250407
 30
0.0
 11
41.609817504883
 21
-498.768021250407
 31
0.0
  0
LINE
  8
BEMAßUNG
  6
STRICHPUNKT
 62
           2
  5
A0
 10
24.109817504883
 20
-500.0
 30
0.0
 11
24.109817504883
 21
-480.0
 31
0.0
  0
LINE
  8
BEMAßUNG
  6
STRICHPUNKT
 62
           2
  5
A1
 10
-35.890182495117
 20
-500.0
 30
0.0
 11
-35.890182495117
 21
-480.0
 31
0.0
  0
LINE
  8
UNSICHTBARE
  6
VERDECKT
 62
           2
  5
A2
 10
-7.673522949219
 20
-484.768021250407
 30
0.0
 11
-7.673522949219
 21
-493.468018198649
 31
0.0
  0
LINE
  8
UNSICHTBARE
  6
VERDECKT
 62
           2
  5
A3
 10
-4.108947753906
 20
-484.768021250407
 30
0.0
 11
-4.108947753906
 21
-493.468018198649
 31
0.0
  0
LINE
  8
UNSICHTBARE
  6
VERDECKT
 62
           2
  5
A4
 10
-8.390182495117
 20
-484.768021250407
 30
0.0
 11
-8.390182495117
 21
-493.468018198649
 31
0.0
  0
LINE
  8
UNSICHTBARE
  6
VERDECKT
 62
           2
  5
A5
 10
-3.39225769043
 20
-484.768021250407
 30
0.0
 11
-3.39225769043
 21
-493.468018198649
 31
0.0
  0
LINE
  8
UNSICHTBARE
  6
VERDECKT
 62
           2
  5
A6
 10
-37.673522949219
 20
-484.768021250407
 30
0.0
 11
-37.673522949219
 21
-493.768021250407
 31
0.0
  0
LINE
  8
UNSICHTBARE
  6
VERDECKT
 62
           2
  5
A7
 10
-34.108947753906
 20
-484.768021250407
 30
0.0
 11
-34.108947753906
 21
-493.768021250407
 31
0.0
  0
LINE
  8
UNSICHTBARE
  6
VERDECKT
 62
           2
  5
A8
 10
-38.390182495117
 20
-484.768021250407
 30
0.0
 11
-38.390182495117
 21
-493.768021250407
 31
0.0
  0
LINE
  8
UNSICHTBARE
  6
VERDECKT
 62
           2
  5
A9
 10
-33.39225769043
 20
-484.768021250407
 30
0.0
 11
-33.39225769043
 21
-493.768021250407
 31
0.0
  0
LINE
  8
UNSICHTBARE
  6
VERDECKT
 62
           2
  5
AA
 10
22.326477050781
 20
-484.768021250407
 30
0.0
 11
22.326477050781
 21
-493.468018198649
 31
0.0
  0
LINE
  8
UNSICHTBARE
  6
VERDECKT
 62
           2
  5
AB
 10
25.891052246094
 20
-484.768021250407
 30
0.0
 11
25.891052246094
 21
-493.468018198649
 31
0.0
  0
LINE
  8
UNSICHTBARE
  6
VERDECKT
 62
           2
  5
AC
 10
21.609817504883
 20
-484.768021250407
 30
0.0
 11
21.609817504883
 21
-493.468018198649
 31
0.0
  0
LINE
  8
UNSICHTBARE
  6
VERDECKT
 62
           2
  5
AD
 10
26.60774230957
 20
-484.768021250407
 30
0.0
 11
26.60774230957
 21
-493.468018198649
 31
0.0
  0
LINE
  8
ZEICHNUNG
  6
AUSGEZOGEN
 62
           1
  5
AE
 10
44.609817504883
 20
-494.267969780503
 30
0.0
 11
68.126147568972
 21
-494.267969780503
 31
0.0
  0
LINE
  8
UNSICHTBARE
  6
VERDECKT
 62
           2
  5
AF
 10
-56.390182495117
 20
-494.267969780503
 30
0.0
 11
44.609817504883
 21
-494.267969780503
 31
0.0
  0
LINE
  8
ZEICHNUNG
  6
AUSGEZOGEN
 62
           1
  5
B0
 10
-97.640182495117
 20
-494.267969780503
 30
0.0
 11
-56.390182495117
 21
-494.267969780503
 31
0.0
  0
LINE
  8
ZEICHNUNG
  6
AUSGEZOGEN
 62
           1
  5
B1
 10
44.609817504883
 20
-495.56795195537
 30
0.0
 11
68.012413865885
 21
-495.56795195537
 31
0.0
  0
LINE
  8
ZEICHNUNG
  6
AUSGEZOGEN
 62
           1
  5
B2
 10
-97.640182495117
 20
-495.56795195537
 30
0.0
 11
-56.390182495117
 21
-495.56795195537
 31
0.0
  0
LINE
  8
ZEICHNUNG
  6
AUSGEZOGEN
 62
           1
  5
B3
 10
194.359832763672
 20
-509.768021250407
 30
0.0
 11
200.609832763672
 21
-509.768021250407
 31
0.0
  0
LINE
  8
ZEICHNUNG
  6
AUSGEZOGEN
 62
           1
  5
B4
 10
197.109832763672
 20
-498.868021250407
 30
0.0
 11
197.109832763672
 21
-494.268021250407
 31
0.0
  0
LINE
  8
ZEICHNUNG
  6
AUSGEZOGEN
 62
           1
  5
B5
 10
194.359832763672
 20
-501.768021250407
 30
0.0
 11
194.359832763672
 21
-498.868021250407
 31
0.0
  0
LINE
  8
ZEICHNUNG
  6
AUSGEZOGEN
 62
           1
  5
B6
 10
194.359832763672
 20
-509.768021250407
 30
0.0
 11
194.359832763672
 21
-506.768021250407
 31
0.0
  0
LINE
  8
ZEICHNUNG
  6
AUSGEZOGEN
 62
           1
  5
B7
 10
194.359832763672
 20
-506.768021250407
 30
0.0
 11
195.709838867188
 21
-506.768021250407
 31
0.0
  0
LINE
  8
ZEICHNUNG
  6
AUSGEZOGEN
 62
           1
  5
B8
 10
195.709838867188
 20
-506.768021250407
 30
0.0
 11
195.709838867188
 21
-501.768021250407
 31
0.0
  0
LINE
  8
ZEICHNUNG
  6
AUSGEZOGEN
 62
           1
  5
B9
 10
201.359832763672
 20
-496.668021250407
 30
0.0
 11
202.609832763672
 21
-496.668021250407
 31
0.0
  0
LINE
  8
ZEICHNUNG
  6
AUSGEZOGEN
 62
           1
  5
BA
 10
201.359832763672
 20
-501.668021250407
 30
0.0
 11
202.609832763672
 21
-501.668021250407
 31
0.0
  0
LINE
  8
BEMAßUNG
  6
STRICHPUNKT
 62
           2
  5
BB
 10
202.609832763672
 20
-502.367407847087
 30
0.0
 11
202.609832763672
 21
-495.808357859294
 31
0.0
  0
LINE
  8
ZEICHNUNG
  6
AUSGEZOGEN
 62
           1
  5
BC
 10
200.109832763672
 20
-500.418021250407
 30
0.0
 11
200.109832763672
 21
-497.918021250407
 31
0.0
  0
LINE
  8
BEMAßUNG
  6
STRICHPUNKT
 62
           2
  5
BD
 10
199.593124389648
 20
-499.168021250407
 30
0.0
 11
205.526260375977
 21
-499.168021250407
 31
0.0
  0
LINE
  8
ZEICHNUNG
  6
AUSGEZOGEN
 62
           1
  5
BE
 10
203.609832763672
 20
-496.745886850993
 30
0.0
 11
203.609832763672
 21
-495.56801667277
 31
0.0
  0
LINE
  8
ZEICHNUNG
  6
AUSGEZOGEN
 62
           1
  5
BF
 10
203.609832763672
 20
-502.368018198649
 30
0.0
 11
203.609832763672
 21
-501.590155649821
 31
0.0
  0
LINE
  8
ZEICHNUNG
  6
AUSGEZOGEN
 62
           1
  5
C0
 10
203.609832763672
 20
-495.56801667277
 30
0.0
 11
201.358169555664
 21
-494.268021250407
 31
0.0
  0
LINE
  8
ZEICHNUNG
  6
AUSGEZOGEN
 62
           1
  5
C1
 10
203.609832763672
 20
-496.745886850993
 30
0.0
 11
203.40983581543
 21
-496.79947571818
 31
0.0
  0
LINE
  8
ZEICHNUNG
  6
AUSGEZOGEN
 62
           1
  5
C2
 10
203.609832763672
 20
-501.590155649821
 30
0.0
 11
203.40983581543
 21
-501.536566782633
 31
0.0
  0
ARC
  8
ZEICHNUNG
  6
AUSGEZOGEN
 62
           1
  5
C3
 10
201.359832763672
 20
-497.918021250407
 30
0.0
 40
1.25
 50
90.000002504476
 51
180.000005008955
  0
ARC
  8
ZEICHNUNG
  6
AUSGEZOGEN
 62
           1
  5
C4
 10
201.359832763672
 20
-500.418021250407
 30
0.0
 40
1.25
 50
180.000005008955
 51
269.99999749552
  0
LINE
  8
ZEICHNUNG
  6
AUSGEZOGEN
 62
           1
  5
C5
 10
200.609832763672
 20
-504.100058603923
 30
0.0
 11
203.609832763672
 21
-502.368018198649
 31
0.0
  0
ARC
  8
ZEICHNUNG
  6
AUSGEZOGEN
 62
           1
  5
C6
 10
202.609848022461
 20
-499.168021250409
 30
0.0
 40
2.500000000002
 50
71.337193616341
 51
90.000186919576
  0
ARC
  8
ZEICHNUNG
  6
AUSGEZOGEN
 62
           1
  5
C7
 10
202.609848022461
 20
-499.168021250405
 30
0.0
 40
2.500000000002
 50
269.999813080423
 51
288.662806383658
  0
LINE
  8
BEMAßUNG
  6
STRICHPUNKT
 62
           2
  5
C8
 10
191.609832763672
 20
-515.0
 30
0.0
 11
191.609832763672
 21
-483.378746653239
 31
0.0
  0
LINE
  8
ZEICHNUNG
  6
AUSGEZOGEN
 62
           1
  5
C9
 10
224.109832763672
 20
-505.768021250407
 30
0.0
 11
224.109832763672
 21
-484.768021250407
 31
0.0
  0
LINE
  8
ZEICHNUNG
  6
AUSGEZOGEN
 62
           1
  5
CA
 10
203.90983581543
 20
-505.768021250407
 30
0.0
 11
224.109832763672
 21
-505.768021250407
 31
0.0
  0
LINE
  8
ZEICHNUNG
  6
AUSGEZOGEN
 62
           1
  5
CB
 10
203.90983581543
 20
-505.768021250407
 30
0.0
 11
203.90983581543
 21
-502.718567515055
 31
0.0
  0
LINE
  8
ZEICHNUNG
  6
AUSGEZOGEN
 62
           1
  5
CC
 10
203.90983581543
 20
-502.718567515055
 30
0.0
 11
205.90983581543
 21
-501.563865640464
 31
0.0
  0
LINE
  8
ZEICHNUNG
  6
AUSGEZOGEN
 62
           1
  5
CD
 10
224.109832763672
 20
-484.768021250407
 30
0.0
 11
159.109832763672
 21
-484.768021250407
 31
0.0
  0
LINE
  8
ZEICHNUNG
  6
AUSGEZOGEN
 62
           1
  5
CE
 10
159.109832763672
 20
-505.768021250407
 30
0.0
 11
159.109832763672
 21
-484.768021250407
 31
0.0
  0
LINE
  8
ZEICHNUNG
  6
AUSGEZOGEN
 62
           1
  5
CF
 10
179.309829711914
 20
-505.768021250407
 30
0.0
 11
159.109832763672
 21
-505.768021250407
 31
0.0
  0
LINE
  8
ZEICHNUNG
  6
AUSGEZOGEN
 62
           1
  5
D0
 10
179.309829711914
 20
-505.768021250407
 30
0.0
 11
179.309829711914
 21
-502.718567515055
 31
0.0
  0
LINE
  8
ZEICHNUNG
  6
AUSGEZOGEN
 62
           1
  5
D1
 10
179.309829711914
 20
-502.718567515055
 30
0.0
 11
177.309829711914
 21
-501.563865640464
 31
0.0
  0
LINE
  8
ZEICHNUNG
  6
AUSGEZOGEN
 62
           1
  5
D2
 10
224.109817504883
 20
-505.768021250407
 30
0.0
 11
224.109817504883
 21
-484.768021250407
 31
0.0
  0
LINE
  8
ZEICHNUNG
  6
AUSGEZOGEN
 62
           1
  5
D3
 10
203.90983581543
 20
-505.768021250407
 30
0.0
 11
224.109817504883
 21
-505.768021250407
 31
0.0
  0
LINE
  8
ZEICHNUNG
  6
AUSGEZOGEN
 62
           1
  5
D4
 10
205.90983581543
 20
-495.972180027118
 30
0.0
 11
201.572525024414
 21
-493.468018198649
 31
0.0
  0
LINE
  8
ZEICHNUNG
  6
AUSGEZOGEN
 62
           1
  5
D5
 10
203.90983581543
 20
-505.768021250407
 30
0.0
 11
203.90983581543
 21
-502.718567515055
 31
0.0
  0
LINE
  8
ZEICHNUNG
  6
AUSGEZOGEN
 62
           1
  5
D6
 10
224.109817504883
 20
-484.768021250407
 30
0.0
 11
159.109817504883
 21
-484.768021250407
 31
0.0
  0
LINE
  8
ZEICHNUNG
  6
AUSGEZOGEN
 62
           1
  5
D7
 10
159.109817504883
 20
-505.768021250407
 30
0.0
 11
159.109817504883
 21
-484.768021250407
 31
0.0
  0
LINE
  8
ZEICHNUNG
  6
AUSGEZOGEN
 62
           1
  5
D8
 10
179.309829711914
 20
-505.768021250407
 30
0.0
 11
159.109817504883
 21
-505.768021250407
 31
0.0
  0
LINE
  8
ZEICHNUNG
  6
AUSGEZOGEN
 62
           1
  5
D9
 10
201.572525024414
 20
-493.468018198649
 30
0.0
 11
181.647171020508
 21
-493.468018198649
 31
0.0
  0
LINE
  8
ZEICHNUNG
  6
AUSGEZOGEN
 62
           1
  5
DA
 10
177.309829711914
 20
-495.972173231966
 30
0.0
 11
181.647171020508
 21
-493.468018198649
 31
0.0
  0
LINE
  8
ZEICHNUNG
  6
AUSGEZOGEN
 62
           1
  5
DB
 10
179.309829711914
 20
-505.768021250407
 30
0.0
 11
179.309829711914
 21
-502.718567515055
 31
0.0
  0
LINE
  8
UNSICHTBARE
  6
VERDECKT
 62
           2
  5
DC
 10
205.709854125977
 20
-484.768021250407
 30
0.0
 11
205.709854125977
 21
-490.268021250407
 31
0.0
  0
LINE
  8
UNSICHTBARE
  6
VERDECKT
 62
           2
  5
DD
 10
205.709854125977
 20
-490.268021250407
 30
0.0
 11
219.709854125977
 21
-490.268021250407
 31
0.0
  0
LINE
  8
UNSICHTBARE
  6
VERDECKT
 62
           2
  5
DE
 10
219.709854125977
 20
-490.268021250407
 30
0.0
 11
219.709854125977
 21
-484.768021250407
 31
0.0
  0
LINE
  8
ZEICHNUNG
  6
AUSGEZOGEN
 62
           1
  5
DF
 10
177.309829711914
 20
-495.972173231966
 30
0.0
 11
177.309829711914
 21
-501.563865640464
 31
0.0
  0
LINE
  8
ZEICHNUNG
  6
AUSGEZOGEN
 62
           1
  5
E0
 10
205.90983581543
 20
-501.563865640464
 30
0.0
 11
205.90983581543
 21
-495.972180027118
 31
0.0
  0
LINE
  8
ZEICHNUNG
  6
AUSGEZOGEN
 62
           1
  5
E1
 10
188.859816196589
 20
-509.768005070961
 30
0.0
 11
182.609832763672
 21
-509.767972502131
 31
0.0
  0
LINE
  8
ZEICHNUNG
  6
AUSGEZOGEN
 62
           1
  5
E2
 10
201.358169555664
 20
-494.268021250407
 30
0.0
 11
181.861567655958
 21
-494.267969780503
 31
0.0
  0
LINE
  8
ZEICHNUNG
  6
AUSGEZOGEN
 62
           1
  5
E3
 10
186.109880914217
 20
-498.867991833463
 30
0.0
 11
186.109904447885
 21
-494.267991833532
 31
0.0
  0
LINE
  8
ZEICHNUNG
  6
AUSGEZOGEN
 62
           1
  5
E4
 10
188.859863263926
 20
-501.768005071099
 30
0.0
 11
188.859880914178
 21
-498.868005071151
 31
0.0
  0
LINE
  8
ZEICHNUNG
  6
AUSGEZOGEN
 62
           1
  5
E5
 10
188.859816196589
 20
-509.768005070961
 30
0.0
 11
188.859833846841
 21
-506.768005071013
 31
0.0
  0
LINE
  8
ZEICHNUNG
  6
AUSGEZOGEN
 62
           1
  5
E6
 10
188.859833846841
 20
-506.768005071013
 30
0.0
 11
187.509827743348
 21
-506.767997128364
 31
0.0
  0
LINE
  8
ZEICHNUNG
  6
AUSGEZOGEN
 62
           1
  5
E7
 10
195.709838867188
 20
-501.768021250407
 30
0.0
 11
187.509857160434
 21
-501.76799712845
 31
0.0
  0
LINE
  8
ZEICHNUNG
  6
AUSGEZOGEN
 62
           1
  5
E8
 10
187.509827743348
 20
-506.767997128364
 30
0.0
 11
187.509857160434
 21
-501.76799712845
 31
0.0
  0
LINE
  8
ZEICHNUNG
  6
AUSGEZOGEN
 62
           1
  5
E9
 10
197.109832763672
 20
-498.868021250407
 30
0.0
 11
186.109880914217
 21
-498.867991833463
 31
0.0
  0
LINE
  8
ZEICHNUNG
  6
AUSGEZOGEN
 62
           1
  5
EA
 10
181.859892681116
 20
-496.667969770683
 30
0.0
 11
180.609892681138
 21
-496.667962416412
 31
0.0
  0
LINE
  8
ZEICHNUNG
  6
AUSGEZOGEN
 62
           1
  5
EB
 10
181.85986326403
 20
-501.667969770597
 30
0.0
 11
180.609863264052
 21
-501.667962416325
 31
0.0
  0
LINE
  8
BEMAßUNG
  6
STRICHPUNKT
 62
           2
  5
EC
 10
180.609859149269
 20
-502.367349012993
 30
0.0
 11
180.609895385529
 21
-495.808299025306
 31
0.0
  0
LINE
  8
ZEICHNUNG
  6
AUSGEZOGEN
 62
           1
  5
ED
 10
183.10987061828
 20
-500.41797712489
 30
0.0
 11
183.109885326823
 21
-497.917977124933
 31
0.0
  0
LINE
  8
BEMAßUNG
  6
STRICHPUNKT
 62
           2
  5
EE
 10
183.626586346566
 20
-499.167980164922
 30
0.0
 11
177.693450360341
 21
-499.167945257808
 31
0.0
  0
LINE
  8
ZEICHNUNG
  6
AUSGEZOGEN
 62
           1
  5
EF
 10
179.609892223039
 20
-496.745822133579
 30
0.0
 11
179.609896799574
 21
-495.56795195537
 31
0.0
  0
LINE
  8
ZEICHNUNG
  6
AUSGEZOGEN
 62
           1
  5
F0
 10
179.609859145695
 20
-502.367953481138
 30
0.0
 11
179.609863722185
 21
-501.590090932323
 31
0.0
  0
LINE
  8
ZEICHNUNG
  6
AUSGEZOGEN
 62
           1
  5
F1
 10
179.609896799574
 20
-495.56795195537
 30
0.0
 11
181.861567655958
 21
-494.267969780503
 31
0.0
  0
LINE
  8
ZEICHNUNG
  6
AUSGEZOGEN
 62
           1
  5
F2
 10
179.609892223039
 20
-496.745822133579
 30
0.0
 11
179.809888855992
 21
-496.799412177431
 31
0.0
  0
LINE
  8
ZEICHNUNG
  6
AUSGEZOGEN
 62
           1
  5
F3
 10
179.609863722185
 20
-501.590090932323
 30
0.0
 11
179.809860985709
 21
-501.536503241802
 31
0.0
  0
ARC
  8
ZEICHNUNG
  6
AUSGEZOGEN
 62
           1
  5
F4
 10
181.859885326845
 20
-497.917969770661
 30
0.0
 40
1.25
 50
359.99965789607
 51
89.999660400551
  0
ARC
  8
ZEICHNUNG
  6
AUSGEZOGEN
 62
           1
  5
F5
 10
181.859870618302
 20
-500.417969770618
 30
0.0
 40
1.25
 50
269.999665409506
 51
359.999657896073
  0
LINE
  8
ZEICHNUNG
  6
AUSGEZOGEN
 62
           1
  5
F6
 10
182.609832763672
 20
-504.100002188306
 30
0.0
 11
179.609859145695
 21
-502.367953481138
 31
0.0
  0
ARC
  8
ZEICHNUNG
  6
AUSGEZOGEN
 62
           1
  5
F7
 10
180.609862713806
 20
-499.167962416279
 30
0.0
 40
2.500000000001
 50
89.999475985443
 51
108.66246928869
  0
ARC
  8
ZEICHNUNG
  6
AUSGEZOGEN
 62
           1
  5
F8
 10
180.609862713805
 20
-499.167962416281
 30
0.0
 40
2.499999999997
 50
251.336856521353
 51
269.999849824622
  0
LINE
  8
BEMAßUNG
  6
STRICHPUNKT
 62
           2
  5
F9
 10
214.109817504883
 20
-498.793100688186
 30
0.0
 11
214.109817504883
 21
-488.685541964877
 31
0.0
  0
LINE
  8
BEMAßUNG
  6
STRICHPUNKT
 62
           2
  5
FA
 10
208.827388351044
 20
-493.768021250407
 30
0.0
 11
219.169171583131
 21
-493.768021250407
 31
0.0
  0
CIRCLE
  8
ZEICHNUNG
  6
AUSGEZOGEN
 62
           1
  5
FB
 10
214.109817504883
 20
-493.768021250407
 30
0.0
 40
4.0
  0
CIRCLE
  8
ZEICHNUNG
  6
AUSGEZOGEN
 62
           1
  5
FC
 10
214.109817504883
 20
-493.768021250407
 30
0.0
 40
1.0
  0
LINE
  8
BEMAßUNG
  6
STRICHPUNKT
 62
           2
  5
FD
 10
169.109832763672
 20
-498.793100688186
 30
0.0
 11
169.109832763672
 21
-488.685541964877
 31
0.0
  0
LINE
  8
BEMAßUNG
  6
STRICHPUNKT
 62
           2
  5
FE
 10
163.827403609833
 20
-493.768021250407
 30
0.0
 11
174.16918684192
 21
-493.768021250407
 31
0.0
  0
CIRCLE
  8
ZEICHNUNG
  6
AUSGEZOGEN
 62
           1
  5
FF
 10
169.109832763672
 20
-493.768021250407
 30
0.0
 40
4.0
  0
CIRCLE
  8
ZEICHNUNG
  6
AUSGEZOGEN
 62
           1
  5
100
 10
169.109832763672
 20
-493.768021250407
 30
0.0
 40
1.0
  0
LINE
  8
BEMAßUNG
  6
STRICHPUNKT
 62
           2
  5
101
 10
216.609832763672
 20
-495.0
 30
0.0
 11
216.609832763672
 21
-483.378746653239
 31
0.0
  0
LINE
  8
BEMAßUNG
  6
STRICHPUNKT
 62
           2
  5
102
 10
166.609832763672
 20
-495.0
 30
0.0
 11
166.609832763672
 21
-483.378746653239
 31
0.0
  0
LINE
  8
UNSICHTBARE
  6
VERDECKT
 62
           2
  5
103
 10
189.82649230957
 20
-484.768021250407
 30
0.0
 11
189.82649230957
 21
-493.468018198649
 31
0.0
  0
LINE
  8
UNSICHTBARE
  6
VERDECKT
 62
           2
  5
104
 10
193.391067504883
 20
-484.768021250407
 30
0.0
 11
193.391067504883
 21
-493.468018198649
 31
0.0
  0
LINE
  8
UNSICHTBARE
  6
VERDECKT
 62
           2
  5
105
 10
189.109832763672
 20
-484.768021250407
 30
0.0
 11
189.109832763672
 21
-493.468018198649
 31
0.0
  0
LINE
  8
UNSICHTBARE
  6
VERDECKT
 62
           2
  5
106
 10
194.107757568359
 20
-484.768021250407
 30
0.0
 11
194.107757568359
 21
-493.468018198649
 31
0.0
  0
LINE
  8
UNSICHTBARE
  6
VERDECKT
 62
           2
  5
107
 10
164.82649230957
 20
-484.768021250407
 30
0.0
 11
164.82649230957
 21
-493.468018198649
 31
0.0
  0
LINE
  8
UNSICHTBARE
  6
VERDECKT
 62
           2
  5
108
 10
168.391067504883
 20
-484.768021250407
 30
0.0
 11
168.391067504883
 21
-493.468018198649
 31
0.0
  0
LINE
  8
UNSICHTBARE
  6
VERDECKT
 62
           2
  5
109
 10
164.109832763672
 20
-484.768021250407
 30
0.0
 11
164.109832763672
 21
-493.468018198649
 31
0.0
  0
LINE
  8
UNSICHTBARE
  6
VERDECKT
 62
           2
  5
10A
 10
169.107757568359
 20
-484.768021250407
 30
0.0
 11
169.107757568359
 21
-493.468018198649
 31
0.0
  0
LINE
  8
UNSICHTBARE
  6
VERDECKT
 62
           2
  5
10B
 10
214.82649230957
 20
-484.768021250407
 30
0.0
 11
214.82649230957
 21
-493.468018198649
 31
0.0
  0
LINE
  8
UNSICHTBARE
  6
VERDECKT
 62
           2
  5
10C
 10
218.391067504883
 20
-484.768021250407
 30
0.0
 11
218.391067504883
 21
-493.468018198649
 31
0.0
  0
LINE
  8
UNSICHTBARE
  6
VERDECKT
 62
           2
  5
10D
 10
214.109832763672
 20
-484.768021250407
 30
0.0
 11
214.109832763672
 21
-493.468018198649
 31
0.0
  0
LINE
  8
UNSICHTBARE
  6
VERDECKT
 62
           2
  5
10E
 10
219.107757568359
 20
-484.768021250407
 30
0.0
 11
219.107757568359
 21
-493.468018198649
 31
0.0
  0
LINE
  8
ZEICHNUNG
  6
AUSGEZOGEN
 62
           1
  5
10F
 10
182.609832763672
 20
-509.767972502131
 30
0.0
 11
182.609832763672
 21
-504.100002188306
 31
0.0
  0
LINE
  8
ZEICHNUNG
  6
AUSGEZOGEN
 62
           1
  5
110
 10
200.609832763672
 20
-509.768021250407
 30
0.0
 11
200.609832763672
 21
-504.100058603923
 31
0.0
  0
LINE
  8
ZEICHNUNG
  6
AUSGEZOGEN
 62
           1
  5
111
 10
-97.640182495117
 20
-509.767972502131
 30
0.0
 11
66.770073046208
 21
-509.767972502131
 31
0.0
  0
INSERT
  8
MITTELLINIEN
  6
AUSGEZOGEN
 62
           2
  5
112
  2
*X1
 10
0.0
 20
0.0
 30
0.0
  0
LINE
  8
ZEICHNUNG
  6
AUSGEZOGEN
 62
           1
  5
113
 10
179.109826660156
 20
-497.168025828058
 30
0.0
 11
179.109826660156
 21
-496.168021250407
 31
0.0
  0
LINE
  8
ZEICHNUNG
  6
AUSGEZOGEN
 62
           1
  5
114
 10
179.109826660156
 20
-502.168021250407
 30
0.0
 11
179.109826660156
 21
-501.168016672756
 31
0.0
  0
LINE
  8
UNSICHTBARE
  6
VERDECKT
 62
           2
  5
115
 10
162.109826660156
 20
-497.166448264037
 30
0.0
 11
162.109826660156
 21
-496.168021250407
 31
0.0
  0
LINE
  8
UNSICHTBARE
  6
VERDECKT
 62
           2
  5
116
 10
162.109826660156
 20
-502.168021250407
 30
0.0
 11
162.109826660156
 21
-501.169594236777
 31
0.0
  0
LINE
  8
UNSICHTBARE
  6
VERDECKT
 62
           2
  5
117
 10
166.109826660156
 20
-495.668021250407
 30
0.0
 11
162.609826660156
 21
-495.668021250407
 31
0.0
  0
LINE
  8
UNSICHTBARE
  6
VERDECKT
 62
           2
  5
118
 10
177.836638530121
 20
-495.668021250407
 30
0.0
 11
175.109826660156
 21
-495.668021250407
 31
0.0
  0
LINE
  8
ZEICHNUNG
  6
AUSGEZOGEN
 62
           1
  5
119
 10
178.609826660156
 20
-495.668021250407
 30
0.0
 11
177.836638530121
 21
-495.668021250407
 31
0.0
  0
LINE
  8
UNSICHTBARE
  6
VERDECKT
 62
           2
  5
11A
 10
162.609826660156
 20
-502.668021250407
 30
0.0
 11
178.609826660156
 21
-502.668021250407
 31
0.0
  0
LINE
  8
ZEICHNUNG
  6
AUSGEZOGEN
 62
           1
  5
11B
 10
179.109826660156
 20
-496.168021250407
 30
0.0
 11
178.609826660156
 21
-495.668021250407
 31
0.0
  0
LINE
  8
UNSICHTBARE
  6
VERDECKT
 62
           2
  5
11C
 10
162.609826660156
 20
-495.668021250407
 30
0.0
 11
162.109826660156
 21
-496.168021250407
 31
0.0
  0
LINE
  8
UNSICHTBARE
  6
VERDECKT
 62
           2
  5
11D
 10
162.109826660156
 20
-502.168021250407
 30
0.0
 11
162.609826660156
 21
-502.668021250407
 31
0.0
  0
LINE
  8
ZEICHNUNG
  6
AUSGEZOGEN
 62
           1
  5
11E
 10
178.834000713649
 20
-502.443847196914
 30
0.0
 11
179.109826660156
 21
-502.168021250407
 31
0.0
  0
LINE
  8
UNSICHTBARE
  6
VERDECKT
 62
           2
  5
11F
 10
178.609826660156
 20
-502.668021250407
 30
0.0
 11
178.834000713649
 21
-502.443847196914
 31
0.0
  0
LINE
  8
UNSICHTBARE
  6
VERDECKT
 62
           2
  5
120
 10
175.109826660156
 20
-495.668021250407
 30
0.0
 11
175.109826660156
 21
-494.168021250407
 31
0.0
  0
LINE
  8
UNSICHTBARE
  6
VERDECKT
 62
           2
  5
121
 10
166.109826660156
 20
-495.668021250407
 30
0.0
 11
166.109826660156
 21
-494.168021250407
 31
0.0
  0
LINE
  8
UNSICHTBARE
  6
VERDECKT
 62
           2
  5
122
 10
175.109826660156
 20
-494.168021250407
 30
0.0
 11
166.109826660156
 21
-494.168021250407
 31
0.0
  0
LINE
  8
BEMAßUNG
  6
STRICHPUNKT
 62
           2
  5
123
 10
170.610879516602
 20
-484.007195139567
 30
0.0
 11
170.610879516602
 21
-506.398033762614
 31
0.0
  0
ARC
  8
UNSICHTBARE
  6
VERDECKT
 62
           2
  5
124
 10
160.611926269531
 20
-499.168021250407
 30
0.0
 40
2.5
 50
306.809771917693
 51
53.190228082306
  0
LINE
  8
BEMAßUNG
  6
STRICHPUNKT
 62
           2
  5
125
 10
212.608786010742
 20
-484.007195139567
 30
0.0
 11
212.608786010742
 21
-506.398033762614
 31
0.0
  0
CIRCLE
  8
ZEICHNUNG
  6
AUSGEZOGEN
 62
           1
  5
126
 10
180.609877972595
 20
-499.167962416368
 30
0.0
 40
2.5
  0
ARC
  8
ZEICHNUNG
  6
AUSGEZOGEN
 62
           1
  5
127
 10
180.609832763672
 20
-499.168021250407
 30
0.0
 40
2.5
 50
126.870072498887
 51
233.129927501112
  0
LINE
  8
ZEICHNUNG
  6
AUSGEZOGEN
 62
           1
  5
128
 10
204.109838867188
 20
-497.168025828058
 30
0.0
 11
204.109838867188
 21
-496.168021250407
 31
0.0
  0
LINE
  8
ZEICHNUNG
  6
AUSGEZOGEN
 62
           1
  5
129
 10
204.109838867188
 20
-502.168021250407
 30
0.0
 11
204.109838867188
 21
-501.168016672756
 31
0.0
  0
LINE
  8
UNSICHTBARE
  6
VERDECKT
 62
           2
  5
12A
 10
221.109838867187
 20
-497.166448264037
 30
0.0
 11
221.109838867187
 21
-496.168021250407
 31
0.0
  0
LINE
  8
UNSICHTBARE
  6
VERDECKT
 62
           2
  5
12B
 10
221.109838867187
 20
-502.168021250407
 30
0.0
 11
221.109838867187
 21
-501.169594236777
 31
0.0
  0
LINE
  8
UNSICHTBARE
  6
VERDECKT
 62
           2
  5
12C
 10
217.109838867187
 20
-495.668021250407
 30
0.0
 11
220.609838867187
 21
-495.668021250407
 31
0.0
  0
LINE
  8
UNSICHTBARE
  6
VERDECKT
 62
           2
  5
12D
 10
205.383026997223
 20
-495.668021250407
 30
0.0
 11
208.109838867187
 21
-495.668021250407
 31
0.0
  0
LINE
  8
ZEICHNUNG
  6
AUSGEZOGEN
 62
           1
  5
12E
 10
204.609838867188
 20
-495.668021250407
 30
0.0
 11
205.383026997223
 21
-495.668021250407
 31
0.0
  0
LINE
  8
UNSICHTBARE
  6
VERDECKT
 62
           2
  5
12F
 10
220.609838867187
 20
-502.668021250407
 30
0.0
 11
204.609838867188
 21
-502.668021250407
 31
0.0
  0
LINE
  8
ZEICHNUNG
  6
AUSGEZOGEN
 62
           1
  5
130
 10
204.109838867188
 20
-496.168021250407
 30
0.0
 11
204.609838867188
 21
-495.668021250407
 31
0.0
  0
LINE
  8
UNSICHTBARE
  6
VERDECKT
 62
           2
  5
131
 10
220.609838867187
 20
-495.668021250407
 30
0.0
 11
221.109838867187
 21
-496.168021250407
 31
0.0
  0
LINE
  8
UNSICHTBARE
  6
VERDECKT
 62
           2
  5
132
 10
221.109838867187
 20
-502.168021250407
 30
0.0
 11
220.609838867187
 21
-502.668021250407
 31
0.0
  0
LINE
  8
ZEICHNUNG
  6
AUSGEZOGEN
 62
           1
  5
133
 10
204.385664813695
 20
-502.443847196914
 30
0.0
 11
204.109838867188
 21
-502.168021250407
 31
0.0
  0
LINE
  8
UNSICHTBARE
  6
VERDECKT
 62
           2
  5
134
 10
204.609838867188
 20
-502.668021250407
 30
0.0
 11
204.385664813695
 21
-502.443847196914
 31
0.0
  0
LINE
  8
UNSICHTBARE
  6
VERDECKT
 62
           2
  5
135
 10
208.109838867187
 20
-495.668021250407
 30
0.0
 11
208.109838867187
 21
-494.168021250407
 31
0.0
  0
LINE
  8
UNSICHTBARE
  6
VERDECKT
 62
           2
  5
136
 10
217.109838867187
 20
-495.668021250407
 30
0.0
 11
217.109838867187
 21
-494.168021250407
 31
0.0
  0
LINE
  8
UNSICHTBARE
  6
VERDECKT
 62
           2
  5
137
 10
208.109838867187
 20
-494.168021250407
 30
0.0
 11
217.109838867187
 21
-494.168021250407
 31
0.0
  0
ARC
  8
UNSICHTBARE
  6
VERDECKT
 62
           2
  5
138
 10
222.607739257812
 20
-499.168021250407
 30
0.0
 40
2.5
 50
126.809771917694
 51
233.190228082306
  0
ARC
  8
ZEICHNUNG
  6
AUSGEZOGEN
 62
           1
  5
139
 10
202.609832763672
 20
-499.168021250407
 30
0.0
 40
2.5
 50
306.870072498886
 51
53.129927501113
  0
CIRCLE
  8
ZEICHNUNG
  6
AUSGEZOGEN
 62
           1
  5
13A
 10
202.609832763672
 20
-499.168021250407
 30
0.0
 40
2.5
  0
LINE
  8
ZEICHNUNG
  6
AUSGEZOGEN
 62
           1
  5
13B
 10
44.609817504883
 20
-496.667962416435
 30
0.0
 11
67.916175420782
 21
-496.667962416435
 31
0.0
  0
LINE
  8
ZEICHNUNG
  6
AUSGEZOGEN
 62
           1
  5
13C
 10
-97.640182495117
 20
-496.667962416435
 30
0.0
 11
-56.390182495117
 21
-496.667962416435
 31
0.0
  0
LINE
  8
ZEICHNUNG
  6
AUSGEZOGEN
 62
           1
  5
13D
 10
41.609817504883
 20
-501.667962416324
 30
0.0
 11
67.478732103162
 21
-501.667962416324
 31
0.0
  0
LINE
  8
ZEICHNUNG
  6
AUSGEZOGEN
 62
           1
  5
13E
 10
-97.640182495117
 20
-501.667962416324
 30
0.0
 11
-53.390182495117
 21
-501.667962416324
 31
0.0
  0
LINE
  8
ZEICHNUNG
  6
AUSGEZOGEN
 62
           1
  5
13F
 10
41.609817504883
 20
-504.100002188306
 30
0.0
 11
67.265956193869
 21
-504.100002188306
 31
0.0
  0
LINE
  8
ZEICHNUNG
  6
AUSGEZOGEN
 62
           1
  5
140
 10
-97.640182495117
 20
-504.100002188306
 30
0.0
 11
-53.390182495117
 21
-504.100002188306
 31
0.0
  0
LINE
  8
ZEICHNUNG
  6
AUSGEZOGEN
 62
           1
  5
141
 10
41.609817504883
 20
-502.367953481138
 30
0.0
 11
67.417490820421
 21
-502.367953481138
 31
0.0
  0
LINE
  8
ZEICHNUNG
  6
AUSGEZOGEN
 62
           1
  5
142
 10
-97.640182495117
 20
-502.367953481138
 30
0.0
 11
-53.390182495117
 21
-502.367953481138
 31
0.0
  0
ENDSEC
  0
EOF
