  0
SECTION
  2
HEADER
  9
$ACADVER
  1
AC1009
  9
$INSBASE
 10
0.0
 20
0.0
 30
0.0
  9
$EXTMIN
 10
-135.0
 20
-375.768036509196
 30
0.0
  9
$EXTMAX
 10
234.609817504883
 20
-205.0
 30
0.0
  9
$LIMMIN
 10
-135.0
 20
-375.768036509196
  9
$LIMMAX
 10
234.609817504883
 20
-205.0
  9
$ORTHOMODE
 70
           0
  9
$REGENMODE
 70
           1
  9
$FILLMODE
 70
           1
  9
$QTEXTMODE
 70
           0
  9
$MIRRTEXT
 70
           1
  9
$DRAGMODE
 70
           2
  9
$LTSCALE
 40
5.0
  9
$OSMODE
 70
           0
  9
$ATTMODE
 70
           1
  9
$TEXTSIZE
 40
0.2
  9
$TRACEWID
 40
0.05
  9
$TEXTSTYLE
  7
TXT
  9
$CLAYER
  8
0
  9
$CELTYPE
  6
CONTINUOUS
  9
$CECOLOR
 62
         256
  9
$DIMSCALE
 40
1.0
  9
$DIMASZ
 40
3.5
  9
$DIMEXO
 40
0.0625
  9
$DIMDLI
 40
0.38
  9
$DIMRND
 40
0.0
  9
$DIMDLE
 40
0.0
  9
$DIMEXE
 40
0.18
  9
$DIMTP
 40
0.0
  9
$DIMTM
 40
0.0
  9
$DIMTXT
 40
3.5
  9
$DIMCEN
 40
0.09
  9
$DIMTSZ
 40
0.0
  9
$DIMTOL
 70
           0
  9
$DIMLIM
 70
           0
  9
$DIMTIH
 70
           1
  9
$DIMTOH
 70
           1
  9
$DIMSE1
 70
           0
  9
$DIMSE2
 70
           0
  9
$DIMTAD
 70
           0
  9
$DIMZIN
 70
           0
  9
$DIMBLK
  1

  9
$DIMASO
 70
           1
  9
$DIMSHO
 70
           1
  9
$DIMPOST
  1

  9
$DIMAPOST
  1

  9
$DIMALT
 70
           0
  9
$DIMALTD
 70
           2
  9
$DIMALTF
 40
25.4
  9
$DIMLFAC
 40
1.0
  9
$DIMTOFL
 70
           0
  9
$DIMTVP
 40
0.0
  9
$DIMTIX
 70
           0
  9
$DIMSOXD
 70
           0
  9
$DIMSAH
 70
           0
  9
$DIMBLK1
  1

  9
$DIMBLK2
  1

  9
$DIMSTYLE
  2
STANDARD
  9
$DIMCLRD
 70
           0
  9
$DIMCLRE
 70
           0
  9
$DIMCLRT
 70
           0
  9
$DIMTFAC
 40
1.0
  9
$DIMGAP
 40
0.09
  9
$LUNITS
 70
           2
  9
$LUPREC
 70
           2
  9
$AXISMODE
 70
           0
  9
$AXISUNIT
 10
0.0
 20
0.0
  9
$SKETCHINC
 40
0.1
  9
$FILLETRAD
 40
0.0
  9
$AUNITS
 70
           0
  9
$AUPREC
 70
           2
  9
$MENU
  1
acad
  9
$ELEVATION
 40
0.0
  9
$PELEVATION
 40
0.0
  9
$THICKNESS
 40
0.0
  9
$LIMCHECK
 70
           0
  9
$BLIPMODE
 70
           1
  9
$CHAMFERA
 40
0.0
  9
$CHAMFERB
 40
0.0
  9
$SKPOLY
 70
           0
  9
$TDCREATE
 40
0.000000000
  9
$TDUPDATE
 40
0.000000000
  9
$TDINDWG
 40
0.0000000000
  9
$TDUSRTIMER
 40
0.0000000000
  9
$USRTIMER
 70
           1
  9
$ANGBASE
 50
0.0
  9
$ANGDIR
 70
           0
  9
$PDMODE
 70
           2
  9
$PDSIZE
 40
0.5
  9
$PLINEWID
 40
0.0
  9
$COORDS
 70
           0
  9
$SPLFRAME
 70
           0
  9
$SPLINETYPE
 70
           6
  9
$SPLINESEGS
 70
           8
  9
$ATTDIA
 70
           0
  9
$ATTREQ
 70
           1
  9
$HANDLING
 70
           1
  9
$HANDSEED
  5
164
  9
$SURFTAB1
 70
           6
  9
$SURFTAB2
 70
           6
  9
$SURFTYPE
 70
           6
  9
$SURFU
 70
           6
  9
$SURFV
 70
           6
  9
$UCSNAME
  2

  9
$UCSORG
 10
0.0
 20
0.0
 30
0.0
  9
$UCSXDIR
 10
1.0
 20
0.0
 30
0.0
  9
$UCSYDIR
 10
0.0
 20
1.0
 30
0.0
  9
$PUCSNAME
  2

  9
$PUCSORG
 10
0.0
 20
0.0
 30
0.0
  9
$PUCSXDIR
 10
1.0
 20
0.0
 30
0.0
  9
$PUCSYDIR
 10
0.0
 20
1.0
 30
0.0
  9
$USERI1
 70
           0
  9
$USERI2
 70
           0
  9
$USERI3
 70
           0
  9
$USERI4
 70
           0
  9
$USERI5
 70
           0
  9
$USERR1
 40
0.0
  9
$USERR2
 40
0.0
  9
$USERR3
 40
0.0
  9
$USERR4
 40
0.0
  9
$USERR5
 40
0.0
  9
$WORLDVIEW
 70
           1
  9
$SHADEDGE
 70
           3
  9
$SHADEDIF
 70
          70
  9
$TILEMODE
 70
           1
  9
$MAXACTVP
 70
          16
  9
$PINSBASE
 10
0.0
 20
0.0
 30
0.0
  9
$PLIMCHECK
 70
           0
  9
$PEXTMIN
 10
1.000000000000E+20
 20
1.000000000000E+20
 30
1.000000000000E+20
  9
$PEXTMAX
 10
-1.000000000000E+20
 20
-1.000000000000E+20
 30
-1.000000000000E+20
  9
$PLIMMIN
 10
0.0
 20
0.0
  9
$PLIMMAX
 10
12.0
 20
9.0
  9
$UNITMODE
 70
           0
  9
$VISRETAIN
 70
           0
  9
$PLINEGEN
 70
           1
  9
$PSLTSCALE
 70
           0
  9
$TREEDEPTH
 70
        3020
  9
$DWGCODEPAGE
  3
dos850
  0
ENDSEC
  0
SECTION
  2
TABLES
  0
TABLE
  2
VPORT
 70
           1
  0
VPORT
  2
*ACTIVE
 70
           0
 10
0.0
 20
0.0
 11
1.0
 21
1.0
 12
6.591288
 22
4.579184
 13
0.0
 23
0.0
 14
1.0
 24
1.0
 15
0.0
 25
0.0
 16
0.0
 26
0.0
 36
1.0
 17
0.0
 27
0.0
 37
0.0
 40
9.158369
 41
0.688564
 42
50.0
 43
0.0
 44
0.0
 50
0.0
 51
0.0
 71
           0
 72
         100
 73
           1
 74
           1
 75
           0
 76
           0
 77
           0
 78
           0
  0
ENDTAB
  0
TABLE
  2
LTYPE
 70
           4
  0
LTYPE
  2
CONTINUOUS
 70
          64
  3
Solid line
 72
          65
 73
           0
 40
0.0
  0
LTYPE
  2
AUSGEZOGEN
 70
           0
  3

 72
          65
 73
           2
 40
0.5
 49
0.25
 49
-0.25
  0
LTYPE
  2
VERDECKT
 70
           0
  3

 72
          65
 73
           2
 40
0.375
 49
0.25
 49
-0.125
  0
LTYPE
  2
STRICHPUNKT
 70
           0
  3

 72
          65
 73
           4
 40
1.0
 49
0.5
 49
-0.25
 49
0.0
 49
-0.25
  0
ENDTAB
  0
TABLE
  2
LAYER
 70
           6
  0
LAYER
  2
0
 70
           0
 62
           7
  6
CONTINUOUS
  0
LAYER
  2
OBERFLäCHENZEICHEN
 70
           0
 62
           7
  6
CONTINUOUS
  0
LAYER
  2
ZEICHNUNG
 70
           0
 62
           7
  6
CONTINUOUS
  0
LAYER
  2
BEMAßUNG
 70
           0
 62
           7
  6
CONTINUOUS
  0
LAYER
  2
UNSICHTBARE
 70
           0
 62
           7
  6
CONTINUOUS
  0
LAYER
  2
MITTELLINIEN
 70
           0
 62
           7
  6
CONTINUOUS
  0
ENDTAB
  0
TABLE
  2
STYLE
 70
           1
  0
STYLE
  2
TXT
 70
           0
 40
3.5
 41
1.0
 50
0.0
 71
           0
 42
3.5
  3
TXT
  4

  0
ENDTAB
  0
TABLE
  2
VIEW
 70
           0
  0
ENDTAB
  0
TABLE
  2
UCS
 70
           0
  0
ENDTAB
  0
TABLE
  2
APPID
 70
           2
  0
APPID
  2
ACAD
 70
           0
  0
APPID
  2
MegaCADPntStyle
 70
           0
  0
ENDTAB
  0
TABLE
  2
DIMSTYLE
 70
           1
  0
DIMSTYLE
  2
STANDARD
 70
           0
  3

  4

  5

  6

  7

 40
1.0
 41
0.18
 42
0.0625
 43
0.38
 44
0.18
 45
0.0
 46
0.0
 47
0.0
 48
0.0
 71
           0
 72
           0
 73
           1
 74
           1
 75
           0
 76
           0
 77
           0
 78
           0
140
0.18
141
0.09
142
0.0
143
25.4
144
1.0
145
0.0
146
1.0
147
0.09
170
           0
171
           2
172
           0
173
           0
174
           0
175
           0
176
           0
177
           0
178
           0
  0
ENDTAB
  0
ENDSEC
  0
SECTION
  2
BLOCKS
  0
BLOCK
  8
0
  5
136
  2
ELIPPSE
 70
          64
 10
0.0
 20
0.0
 30
0.0
  3
ELIPPSE
  0
CIRCLE
  8
0
  6
BYBLOCK
 62
           0
  5
137
 10
0.0
 20
0.0
 30
0.0
 40
1.0
  0
ENDBLK
  8
0
  6
BYBLOCK
 62
           0
  5
138
  0
BLOCK
  8
0
  5
139
  2
M06ANS_1
 70
          64
 10
0.0
 20
0.0
 30
0.0
  3
M06ANS_1
  0
LINE
  8
ZEICHNUNG
  6
AUSGEZOGEN
 62
           1
  5
13A
 10
2.499992370605
 20
-2.886764526367
 30
0.0
 11
2.499992370605
 21
2.886756896973
 31
0.0
  0
LINE
  8
ZEICHNUNG
  6
AUSGEZOGEN
 62
           1
  5
13B
 10
-7.5
 20
-2.886749267578
 30
0.0
 11
-7.5
 21
2.886741638184
 31
0.0
  0
LINE
  8
ZEICHNUNG
  6
AUSGEZOGEN
 62
           1
  5
13C
 10
2.499992370605
 20
2.886756896973
 30
0.0
 11
-2.499984741211
 21
5.773498535156
 31
0.0
  0
LINE
  8
ZEICHNUNG
  6
AUSGEZOGEN
 62
           1
  5
13D
 10
-2.499984741211
 20
-5.773506164551
 30
0.0
 11
-7.5
 21
-2.886749267578
 31
0.0
  0
LINE
  8
ZEICHNUNG
  6
AUSGEZOGEN
 62
           1
  5
13E
 10
2.499992370605
 20
-2.886764526367
 30
0.0
 11
-2.499984741211
 21
-5.773506164551
 31
0.0
  0
LINE
  8
ZEICHNUNG
  6
AUSGEZOGEN
 62
           1
  5
13F
 10
-2.499984741211
 20
5.773498535156
 30
0.0
 11
-7.5
 21
2.886741638184
 31
0.0
  0
CIRCLE
  8
MITTELLINIEN
  6
AUSGEZOGEN
 62
           2
  5
140
 10
-2.5
 20
0.0
 30
0.0
 40
5.0
  0
CIRCLE
  8
ZEICHNUNG
  6
AUSGEZOGEN
 62
           1
  5
141
 10
-2.5
 20
0.0
 30
0.0
 40
3.0
  0
ARC
  8
MITTELLINIEN
  6
AUSGEZOGEN
 62
           2
  5
142
 10
-2.5
 20
0.0
 30
0.0
 40
2.5
 50
69.148774611393
 51
336.217274135186
  0
ENDBLK
  8
0
  6
BYBLOCK
 62
           0
  5
143
  0
BLOCK
  8
0
  5
144
  2
M06ANS_2
 70
          64
 10
0.0
 20
0.0
 30
0.0
  3
M06ANS_2
  0
LINE
  8
ZEICHNUNG
  6
AUSGEZOGEN
 62
           1
  5
145
 10
2.499992370605
 20
-2.886764526367
 30
0.0
 11
2.499992370605
 21
2.886756896973
 31
0.0
  0
LINE
  8
ZEICHNUNG
  6
AUSGEZOGEN
 62
           1
  5
146
 10
-7.5
 20
-2.886749267578
 30
0.0
 11
-7.5
 21
2.886741638184
 31
0.0
  0
LINE
  8
ZEICHNUNG
  6
AUSGEZOGEN
 62
           1
  5
147
 10
2.499992370605
 20
2.886756896973
 30
0.0
 11
-2.499984741211
 21
5.773498535156
 31
0.0
  0
LINE
  8
ZEICHNUNG
  6
AUSGEZOGEN
 62
           1
  5
148
 10
-2.499984741211
 20
-5.773506164551
 30
0.0
 11
-7.5
 21
-2.886749267578
 31
0.0
  0
LINE
  8
ZEICHNUNG
  6
AUSGEZOGEN
 62
           1
  5
149
 10
2.499992370605
 20
-2.886764526367
 30
0.0
 11
-2.499984741211
 21
-5.773506164551
 31
0.0
  0
LINE
  8
ZEICHNUNG
  6
AUSGEZOGEN
 62
           1
  5
14A
 10
-2.499984741211
 20
5.773498535156
 30
0.0
 11
-7.5
 21
2.886741638184
 31
0.0
  0
CIRCLE
  8
MITTELLINIEN
  6
AUSGEZOGEN
 62
           2
  5
14B
 10
-2.5
 20
0.0
 30
0.0
 40
5.0
  0
ARC
  8
MITTELLINIEN
  6
AUSGEZOGEN
 62
           2
  5
14C
 10
-2.5
 20
0.0
 30
0.0
 40
2.5
 50
63.957783318545
 51
341.531566229241
  0
ENDBLK
  8
0
  6
BYBLOCK
 62
           0
  5
14D
  0
BLOCK
  8
0
  5
14E
  2
*X3
 70
          65
 10
0.0
 20
0.0
 30
0.0
  3
*X3
  0
LINE
  8
0
  6
BYBLOCK
 62
           0
  5
14F
 10
201.209250897118
 20
-244.268021250407
 30
0.0
 11
202.609817504883
 21
-242.867454642642
 31
0.0
  0
LINE
  8
0
  6
BYBLOCK
 62
           0
  5
150
 10
196.966610209999
 20
-244.268021250407
 30
0.0
 11
202.609817504883
 21
-238.624813955523
 31
0.0
  0
LINE
  8
0
  6
BYBLOCK
 62
           0
  5
151
 10
203.904974944335
 20
-237.329656516071
 30
0.0
 11
206.56961712871
 21
-234.665014331695
 31
0.0
  0
LINE
  8
0
  6
BYBLOCK
 62
           0
  5
152
 10
194.909820556641
 20
-242.082170216646
 30
0.0
 11
196.723969522879
 21
-240.268021250407
 31
0.0
  0
LINE
  8
0
  6
BYBLOCK
 62
           0
  5
153
 10
197.109817504883
 20
-239.882173268404
 30
0.0
 11
202.255592171882
 21
-234.736398601404
 31
0.0
  0
LINE
  8
0
  6
BYBLOCK
 62
           0
  5
154
 10
197.109817504883
 20
-235.639532581284
 30
0.0
 11
200.609817504883
 21
-232.139532581284
 31
0.0
  0
LINE
  8
0
  6
BYBLOCK
 62
           0
  5
155
 10
205.800124307075
 20
-226.949225779092
 30
0.0
 11
206.609817504883
 21
-226.139532581284
 31
0.0
  0
LINE
  8
0
  6
BYBLOCK
 62
           0
  5
156
 10
184.238688148641
 20
-244.268021250407
 30
0.0
 11
188.238688148641
 21
-240.268021250407
 31
0.0
  0
LINE
  8
0
  6
BYBLOCK
 62
           0
  5
157
 10
194.909820556641
 20
-233.596888842407
 30
0.0
 11
204.155619734051
 21
-224.351089664996
 31
0.0
  0
LINE
  8
0
  6
BYBLOCK
 62
           0
  5
158
 10
180.609817504883
 20
-243.654251207046
 30
0.0
 11
186.109817504883
 21
-238.154251207046
 31
0.0
  0
LINE
  8
0
  6
BYBLOCK
 62
           0
  5
159
 10
197.859817504883
 20
-226.404251207046
 30
0.0
 11
199.996051276219
 21
-224.26801743571
 31
0.0
  0
LINE
  8
0
  6
BYBLOCK
 62
           0
  5
15A
 10
180.609817504883
 20
-239.411610519926
 30
0.0
 11
188.309814453125
 21
-231.711613571684
 31
0.0
  0
LINE
  8
0
  6
BYBLOCK
 62
           0
  5
15B
 10
178.76593619103
 20
-237.01285114666
 30
0.0
 11
181.062726384243
 21
-234.716060953446
 31
0.0
  0
LINE
  8
0
  6
BYBLOCK
 62
           0
  5
15C
 10
182.55786102262
 20
-233.22092631507
 30
0.0
 11
186.210772953738
 21
-229.568014383952
 31
0.0
  0
LINE
  8
0
  6
BYBLOCK
 62
           0
  5
15D
 10
176.609817504883
 20
-234.926329145688
 30
0.0
 11
176.952062691865
 21
-234.584083958706
 31
0.0
  0
LINE
  8
0
  6
BYBLOCK
 62
           0
  5
15E
 10
182.609817504883
 20
-228.926329145688
 30
0.0
 11
185.359817504883
 21
-226.176329145688
 31
0.0
  0
LINE
  8
0
  6
BYBLOCK
 62
           0
  5
15F
 10
180.525488527742
 20
-226.76801743571
 30
0.0
 11
183.025488527742
 21
-224.26801743571
 31
0.0
  0
LINE
  8
0
  6
BYBLOCK
 62
           0
  5
160
 10
176.609817504883
 20
-226.441047771449
 30
0.0
 11
178.202218277571
 21
-224.848646998761
 31
0.0
  0
ENDBLK
  8
0
  6
BYBLOCK
 62
           0
  5
161
  0
ENDSEC
  0
SECTION
  2
ENTITIES
  0
INSERT
  8
OBERFLäCHENZEICHEN
  6
AUSGEZOGEN
 62
           9
  5
2A
  2
M06ANS_1
 10
26.609817504883
 20
-360.268021250407
 30
0.0
  0
INSERT
  8
OBERFLäCHENZEICHEN
  6
AUSGEZOGEN
 62
           9
  5
2B
  2
M06ANS_2
 10
-33.390182495117
 20
-360.268036509196
 30
0.0
  0
LINE
  8
ZEICHNUNG
  6
AUSGEZOGEN
 62
           1
  5
2C
 10
-61.890182495117
 20
-208.76801743571
 30
0.0
 11
50.109817504883
 21
-208.76801743571
 31
0.0
  0
LINE
  8
ZEICHNUNG
  6
AUSGEZOGEN
 62
           1
  5
2D
 10
-61.890182495117
 20
-239.768021250407
 30
0.0
 11
50.109817504883
 21
-239.768021250407
 31
0.0
  0
LINE
  8
ZEICHNUNG
  6
AUSGEZOGEN
 62
           1
  5
2E
 10
50.109817504883
 20
-239.768021250407
 30
0.0
 11
50.109817504883
 21
-208.76801743571
 31
0.0
  0
LINE
  8
ZEICHNUNG
  6
AUSGEZOGEN
 62
           1
  5
2F
 10
-61.890182495117
 20
-239.768021250407
 30
0.0
 11
-61.890182495117
 21
-208.76801743571
 31
0.0
  0
LINE
  8
BEMAßUNG
  6
STRICHPUNKT
 62
           2
  5
30
 10
24.109817504883
 20
-239.768021250407
 30
0.0
 11
24.109817504883
 21
-208.76801743571
 31
0.0
  0
LINE
  8
BEMAßUNG
  6
STRICHPUNKT
 62
           2
  5
31
 10
-35.890182495117
 20
-239.768021250407
 30
0.0
 11
-35.890182495117
 21
-208.76801743571
 31
0.0
  0
LINE
  8
BEMAßUNG
  6
STRICHPUNKT
 62
           2
  5
32
 10
-135.0
 20
-332.768021250407
 30
0.0
 11
225.0
 21
-332.768021250407
 31
0.0
  0
LINE
  8
ZEICHNUNG
  6
AUSGEZOGEN
 62
           1
  5
33
 10
-128.890182495117
 20
-244.268021250407
 30
0.0
 11
66.81381311305
 21
-244.268021250407
 31
0.0
  0
LINE
  8
ZEICHNUNG
  6
AUSGEZOGEN
 62
           1
  5
34
 10
53.109817504883
 20
-224.26801743571
 30
0.0
 11
68.563586717311
 21
-224.26801743571
 31
0.0
  0
LINE
  8
ZEICHNUNG
  6
AUSGEZOGEN
 62
           1
  5
35
 10
-128.890182495117
 20
-224.26801743571
 30
0.0
 11
-64.890182495117
 21
-224.26801743571
 31
0.0
  0
LINE
  8
ZEICHNUNG
  6
AUSGEZOGEN
 62
           1
  5
36
 10
53.109817504883
 20
-225.76801743571
 30
0.0
 11
68.432353722022
 21
-225.76801743571
 31
0.0
  0
LINE
  8
ZEICHNUNG
  6
AUSGEZOGEN
 62
           1
  5
37
 10
-128.890182495117
 20
-225.76801743571
 30
0.0
 11
-64.890182495117
 21
-225.76801743571
 31
0.0
  0
LINE
  8
ZEICHNUNG
  6
AUSGEZOGEN
 62
           1
  5
38
 10
50.109817504883
 20
-235.76801743571
 30
0.0
 11
67.557467086763
 21
-235.76801743571
 31
0.0
  0
LINE
  8
ZEICHNUNG
  6
AUSGEZOGEN
 62
           1
  5
39
 10
-128.890182495117
 20
-235.76801743571
 30
0.0
 11
-61.890182495117
 21
-235.76801743571
 31
0.0
  0
LINE
  8
ZEICHNUNG
  6
AUSGEZOGEN
 62
           1
  5
3A
 10
-128.890182495117
 20
-244.268021250407
 30
0.0
 11
-128.890182495117
 21
-224.26801743571
 31
0.0
  0
LINE
  8
ZEICHNUNG
  6
AUSGEZOGEN
 62
           1
  5
3B
 10
-128.890182495117
 20
-315.768021250407
 30
0.0
 11
-128.890182495117
 21
-349.768021250407
 31
0.0
  0
LINE
  8
UNSICHTBARE
  6
VERDECKT
 62
           2
  5
3C
 10
-64.890182495117
 20
-224.26801743571
 30
0.0
 11
53.109817504883
 21
-224.26801743571
 31
0.0
  0
LINE
  8
BEMAßUNG
  6
STRICHPUNKT
 62
           2
  5
3D
 10
66.41630318491
 20
-248.811580519907
 30
0.0
 11
68.983045232445
 21
-219.473584668891
 31
0.0
  0
LINE
  8
BEMAßUNG
  6
STRICHPUNKT
 62
           2
  5
3E
 10
-5.890182495117
 20
-242.402637369419
 30
0.0
 11
-5.890182495117
 21
-205.0
 31
0.0
  0
LINE
  8
BEMAßUNG
  6
STRICHPUNKT
 62
           2
  5
3F
 10
29.109817504883
 20
-230.0
 30
0.0
 11
29.109817504883
 21
-205.0
 31
0.0
  0
LINE
  8
BEMAßUNG
  6
STRICHPUNKT
 62
           2
  5
40
 10
-40.890182495117
 20
-230.0
 30
0.0
 11
-40.890182495117
 21
-205.0
 31
0.0
  0
LINE
  8
ZEICHNUNG
  6
AUSGEZOGEN
 62
           1
  5
41
 10
50.109817504883
 20
-320.368021250407
 30
0.0
 11
219.794792093174
 21
-320.368021250407
 31
0.0
  0
LINE
  8
ZEICHNUNG
  6
AUSGEZOGEN
 62
           1
  5
42
 10
-128.890182495117
 20
-320.368021250407
 30
0.0
 11
-61.890182495117
 21
-320.368021250407
 31
0.0
  0
LINE
  8
ZEICHNUNG
  6
AUSGEZOGEN
 62
           1
  5
43
 10
50.109817504883
 20
-317.768021250407
 30
0.0
 11
220.022262618342
 21
-317.768021250407
 31
0.0
  0
LINE
  8
ZEICHNUNG
  6
AUSGEZOGEN
 62
           1
  5
44
 10
-128.890182495117
 20
-317.768021250407
 30
0.0
 11
-61.890182495117
 21
-317.768021250407
 31
0.0
  0
LINE
  8
ZEICHNUNG
  6
AUSGEZOGEN
 62
           1
  5
45
 10
50.109817504883
 20
-315.768021250407
 30
0.0
 11
220.197239945394
 21
-315.768021250407
 31
0.0
  0
LINE
  8
ZEICHNUNG
  6
AUSGEZOGEN
 62
           1
  5
46
 10
-128.890182495117
 20
-315.768021250407
 30
0.0
 11
-61.890182495117
 21
-315.768021250407
 31
0.0
  0
LINE
  8
ZEICHNUNG
  6
AUSGEZOGEN
 62
           1
  5
47
 10
-128.890182495117
 20
-345.168021250407
 30
0.0
 11
-61.890182495117
 21
-345.168021250407
 31
0.0
  0
LINE
  8
ZEICHNUNG
  6
AUSGEZOGEN
 62
           1
  5
48
 10
-128.890182495117
 20
-347.768021250407
 30
0.0
 11
-61.890182495117
 21
-347.768021250407
 31
0.0
  0
LINE
  8
ZEICHNUNG
  6
AUSGEZOGEN
 62
           1
  5
49
 10
-128.890182495117
 20
-349.768021250407
 30
0.0
 11
-61.890182495117
 21
-349.768021250407
 31
0.0
  0
LINE
  8
BEMAßUNG
  6
STRICHPUNKT
 62
           2
  5
4A
 10
216.827441495813
 20
-354.284993778881
 30
0.0
 11
220.616698460527
 21
-310.973588483588
 31
0.0
  0
LINE
  8
ZEICHNUNG
  6
AUSGEZOGEN
 62
           1
  5
4B
 10
50.109817504883
 20
-345.168021250407
 30
0.0
 11
217.625073237732
 21
-345.168021250407
 31
0.0
  0
LINE
  8
ZEICHNUNG
  6
AUSGEZOGEN
 62
           1
  5
4C
 10
50.109817504883
 20
-347.768021250407
 30
0.0
 11
217.397602712564
 21
-347.768021250407
 31
0.0
  0
LINE
  8
ZEICHNUNG
  6
AUSGEZOGEN
 62
           1
  5
4D
 10
50.109817504883
 20
-349.768021250407
 30
0.0
 11
217.222625385512
 21
-349.768021250407
 31
0.0
  0
LINE
  8
ZEICHNUNG
  6
AUSGEZOGEN
 62
           1
  5
4E
 10
50.109817504883
 20
-326.518021250407
 30
0.0
 11
219.25673681249
 21
-326.518021250407
 31
0.0
  0
LINE
  8
ZEICHNUNG
  6
AUSGEZOGEN
 62
           1
  5
4F
 10
-128.890182495117
 20
-326.518021250407
 30
0.0
 11
-61.890182495117
 21
-326.518021250407
 31
0.0
  0
LINE
  8
ZEICHNUNG
  6
AUSGEZOGEN
 62
           1
  5
50
 10
50.109817504883
 20
-339.018021250407
 30
0.0
 11
218.163128518416
 21
-339.018021250407
 31
0.0
  0
LINE
  8
ZEICHNUNG
  6
AUSGEZOGEN
 62
           1
  5
51
 10
-128.890182495117
 20
-339.018021250407
 30
0.0
 11
-61.890182495117
 21
-339.018021250407
 31
0.0
  0
LINE
  8
BEMAßUNG
  6
STRICHPUNKT
 62
           2
  5
52
 10
-68.390182495117
 20
-250.0
 30
0.0
 11
-68.390182495117
 21
-220.0
 31
0.0
  0
LINE
  8
BEMAßUNG
  6
STRICHPUNKT
 62
           2
  5
53
 10
-68.390182495117
 20
-324.238439873109
 30
0.0
 11
-68.390182495117
 21
-341.507951158152
 31
0.0
  0
LINE
  8
BEMAßUNG
  6
STRICHPUNKT
 62
           2
  5
54
 10
56.609817504883
 20
-324.640056414622
 30
0.0
 11
56.609817504883
 21
-340.704718075126
 31
0.0
  0
LINE
  8
BEMAßUNG
  6
STRICHPUNKT
 62
           2
  5
55
 10
56.609817504883
 20
-250.0
 30
0.0
 11
56.609817504883
 21
-220.0
 31
0.0
  0
LINE
  8
BEMAßUNG
  6
STRICHPUNKT
 62
           2
  5
56
 10
181.609817504883
 20
-325.041672956135
 30
0.0
 11
181.609817504883
 21
-340.704718075126
 31
0.0
  0
CIRCLE
  8
ZEICHNUNG
  6
AUSGEZOGEN
 62
           1
  5
57
 10
-68.390182495117
 20
-332.768021250407
 30
0.0
 40
3.3
  0
CIRCLE
  8
ZEICHNUNG
  6
AUSGEZOGEN
 62
           1
  5
58
 10
56.609817504883
 20
-332.768021250407
 30
0.0
 40
3.3
  0
CIRCLE
  8
ZEICHNUNG
  6
AUSGEZOGEN
 62
           1
  5
59
 10
181.609817504883
 20
-332.768021250407
 30
0.0
 40
3.3
  0
LINE
  8
ZEICHNUNG
  6
AUSGEZOGEN
 62
           1
  5
5A
 10
-64.890182495117
 20
-218.76801743571
 30
0.0
 11
-64.890182495117
 21
-228.76801743571
 31
0.0
  0
LINE
  8
ZEICHNUNG
  6
AUSGEZOGEN
 62
           1
  5
5B
 10
-64.890182495117
 20
-218.76801743571
 30
0.0
 11
-61.890182495117
 21
-218.76801743571
 31
0.0
  0
LINE
  8
ZEICHNUNG
  6
AUSGEZOGEN
 62
           1
  5
5C
 10
-64.890182495117
 20
-228.76801743571
 30
0.0
 11
-61.890182495117
 21
-228.76801743571
 31
0.0
  0
LINE
  8
ZEICHNUNG
  6
AUSGEZOGEN
 62
           1
  5
5D
 10
-61.890182495117
 20
-289.768036509196
 30
0.0
 11
50.109817504883
 21
-289.768036509196
 31
0.0
  0
LINE
  8
ZEICHNUNG
  6
AUSGEZOGEN
 62
           1
  5
5E
 10
-61.890182495117
 20
-375.768036509196
 30
0.0
 11
50.109817504883
 21
-375.768036509196
 31
0.0
  0
LINE
  8
ZEICHNUNG
  6
AUSGEZOGEN
 62
           1
  5
5F
 10
50.109817504883
 20
-289.768036509196
 30
0.0
 11
50.109817504883
 21
-375.768036509196
 31
0.0
  0
LINE
  8
ZEICHNUNG
  6
AUSGEZOGEN
 62
           1
  5
60
 10
-61.890182495117
 20
-289.768036509196
 30
0.0
 11
-61.890182495117
 21
-375.768036509196
 31
0.0
  0
LINE
  8
BEMAßUNG
  6
STRICHPUNKT
 62
           2
  5
61
 10
-15.492039132623
 20
-303.268036509196
 30
0.0
 11
4.163223266602
 21
-303.268036509196
 31
0.0
  0
LINE
  8
BEMAßUNG
  6
STRICHPUNKT
 62
           2
  5
62
 10
-15.836776733398
 20
-362.268036509196
 30
0.0
 11
4.163223266602
 21
-362.268036509196
 31
0.0
  0
LINE
  8
BEMAßUNG
  6
STRICHPUNKT
 62
           2
  5
63
 10
29.109817504883
 20
-326.158219004313
 30
0.0
 11
29.109817504883
 21
-341.158219004313
 31
0.0
  0
LINE
  8
BEMAßUNG
  6
STRICHPUNKT
 62
           2
  5
64
 10
-40.890182495117
 20
-323.827796985016
 30
0.0
 11
-40.890182495117
 21
-340.075418411611
 31
0.0
  0
CIRCLE
  8
ZEICHNUNG
  6
AUSGEZOGEN
 62
           1
  5
65
 10
29.109817504883
 20
-332.768036509196
 30
0.0
 40
3.0
  0
CIRCLE
  8
ZEICHNUNG
  6
AUSGEZOGEN
 62
           1
  5
66
 10
-5.890182495117
 20
-303.268036509196
 30
0.0
 40
3.0
  0
CIRCLE
  8
ZEICHNUNG
  6
AUSGEZOGEN
 62
           1
  5
67
 10
-5.890182495117
 20
-362.268036509196
 30
0.0
 40
3.0
  0
CIRCLE
  8
ZEICHNUNG
  6
AUSGEZOGEN
 62
           1
  5
68
 10
-40.890182495117
 20
-332.768036509196
 30
0.0
 40
3.0
  0
ARC
  8
MITTELLINIEN
  6
AUSGEZOGEN
 62
           2
  5
69
 10
-5.890182495117
 20
-362.268036509196
 30
0.0
 40
4.0
 50
349.999997672743
 51
260.000000290906
  0
LINE
  8
ZEICHNUNG
  6
AUSGEZOGEN
 62
           1
  5
6A
 10
-61.890182495117
 20
-289.768021250407
 30
0.0
 11
50.109817504883
 21
-289.768021250407
 31
0.0
  0
LINE
  8
ZEICHNUNG
  6
AUSGEZOGEN
 62
           1
  5
6B
 10
-61.890182495117
 20
-375.768021250407
 30
0.0
 11
50.109817504883
 21
-375.768021250407
 31
0.0
  0
LINE
  8
ZEICHNUNG
  6
AUSGEZOGEN
 62
           1
  5
6C
 10
50.109817504883
 20
-345.568039560954
 30
0.0
 11
50.109817504883
 21
-375.768021250407
 31
0.0
  0
LINE
  8
ZEICHNUNG
  6
AUSGEZOGEN
 62
           1
  5
6D
 10
50.109817504883
 20
-289.768021250407
 30
0.0
 11
50.109817504883
 21
-341.914414072673
 31
0.0
  0
LINE
  8
ZEICHNUNG
  6
AUSGEZOGEN
 62
           1
  5
6E
 10
-61.890182495117
 20
-289.768021250407
 30
0.0
 11
-61.890182495117
 21
-375.768021250407
 31
0.0
  0
LINE
  8
BEMAßUNG
  6
STRICHPUNKT
 62
           2
  5
6F
 10
-5.890182495117
 20
-289.768021250407
 30
0.0
 11
-5.890182495117
 21
-375.768021250407
 31
0.0
  0
LINE
  8
BEMAßUNG
  6
STRICHPUNKT
 62
           2
  5
70
 10
24.109817504883
 20
-289.768021250407
 30
0.0
 11
24.109817504883
 21
-375.768021250407
 31
0.0
  0
LINE
  8
BEMAßUNG
  6
STRICHPUNKT
 62
           2
  5
71
 10
-35.890182495117
 20
-289.768021250407
 30
0.0
 11
-35.890182495117
 21
-375.768021250407
 31
0.0
  0
CIRCLE
  8
ZEICHNUNG
  6
AUSGEZOGEN
 62
           1
  5
72
 10
29.109817504883
 20
-332.768021250407
 30
0.0
 40
3.0
  0
CIRCLE
  8
ZEICHNUNG
  6
AUSGEZOGEN
 62
           1
  5
73
 10
-5.890182495117
 20
-303.268021250407
 30
0.0
 40
3.0
  0
CIRCLE
  8
ZEICHNUNG
  6
AUSGEZOGEN
 62
           1
  5
74
 10
-5.890182495117
 20
-362.268021250407
 30
0.0
 40
3.0
  0
CIRCLE
  8
ZEICHNUNG
  6
AUSGEZOGEN
 62
           1
  5
75
 10
-40.890182495117
 20
-332.768021250407
 30
0.0
 40
3.0
  0
ARC
  8
MITTELLINIEN
  6
AUSGEZOGEN
 62
           2
  5
76
 10
29.109817504883
 20
-332.768021250407
 30
0.0
 40
4.0
 50
349.999997672743
 51
260.000000290906
  0
ARC
  8
MITTELLINIEN
  6
AUSGEZOGEN
 62
           2
  5
77
 10
-5.890182495117
 20
-303.268021250407
 30
0.0
 40
4.0
 50
349.999997672743
 51
260.000000290906
  0
ARC
  8
MITTELLINIEN
  6
AUSGEZOGEN
 62
           2
  5
78
 10
-40.890182495117
 20
-332.768021250407
 30
0.0
 40
4.0
 50
349.999997672743
 51
260.000000290906
  0
LINE
  8
UNSICHTBARE
  6
VERDECKT
 62
           2
  5
79
 10
-61.890182495117
 20
-315.768021250407
 30
0.0
 11
50.109817504883
 21
-315.768021250407
 31
0.0
  0
LINE
  8
UNSICHTBARE
  6
VERDECKT
 62
           2
  5
7A
 10
-61.890182495117
 20
-349.768021250407
 30
0.0
 11
50.109817504883
 21
-349.768021250407
 31
0.0
  0
LINE
  8
UNSICHTBARE
  6
VERDECKT
 62
           2
  5
7B
 10
-61.890182495117
 20
-326.518021250407
 30
0.0
 11
50.109817504883
 21
-326.518021250407
 31
0.0
  0
LINE
  8
UNSICHTBARE
  6
VERDECKT
 62
           2
  5
7C
 10
-61.890182495117
 20
-339.018021250407
 30
0.0
 11
50.109817504883
 21
-339.018021250407
 31
0.0
  0
LINE
  8
BEMAßUNG
  6
STRICHPUNKT
 62
           2
  5
7D
 10
-71.0
 20
-302.768036509196
 30
0.0
 11
-51.0
 21
-302.768036509196
 31
0.0
  0
LINE
  8
ZEICHNUNG
  6
AUSGEZOGEN
 62
           1
  5
7E
 10
-64.890182495117
 20
-297.768036509196
 30
0.0
 11
-64.890182495117
 21
-307.768036509196
 31
0.0
  0
LINE
  8
ZEICHNUNG
  6
AUSGEZOGEN
 62
           1
  5
7F
 10
-64.890182495117
 20
-297.768036509196
 30
0.0
 11
-61.890182495117
 21
-297.768036509196
 31
0.0
  0
LINE
  8
ZEICHNUNG
  6
AUSGEZOGEN
 62
           1
  5
80
 10
-64.890182495117
 20
-307.768036509196
 30
0.0
 11
-61.890182495117
 21
-307.768036509196
 31
0.0
  0
LINE
  8
BEMAßUNG
  6
STRICHPUNKT
 62
           2
  5
81
 10
59.219635009766
 20
-302.768036509196
 30
0.0
 11
39.219635009766
 21
-302.768036509196
 31
0.0
  0
LINE
  8
ZEICHNUNG
  6
AUSGEZOGEN
 62
           1
  5
82
 10
53.109817504883
 20
-297.768036509196
 30
0.0
 11
53.109817504883
 21
-307.768036509196
 31
0.0
  0
LINE
  8
ZEICHNUNG
  6
AUSGEZOGEN
 62
           1
  5
83
 10
53.109817504883
 20
-297.768036509196
 30
0.0
 11
50.109817504883
 21
-297.768036509196
 31
0.0
  0
LINE
  8
ZEICHNUNG
  6
AUSGEZOGEN
 62
           1
  5
84
 10
53.109817504883
 20
-307.768036509196
 30
0.0
 11
50.109817504883
 21
-307.768036509196
 31
0.0
  0
LINE
  8
BEMAßUNG
  6
STRICHPUNKT
 62
           2
  5
85
 10
-71.0
 20
-362.768005991618
 30
0.0
 11
-51.0
 21
-362.768005991618
 31
0.0
  0
LINE
  8
ZEICHNUNG
  6
AUSGEZOGEN
 62
           1
  5
86
 10
-64.890182495117
 20
-367.768005991618
 30
0.0
 11
-64.890182495117
 21
-357.768005991618
 31
0.0
  0
LINE
  8
ZEICHNUNG
  6
AUSGEZOGEN
 62
           1
  5
87
 10
-64.890182495117
 20
-367.768005991618
 30
0.0
 11
-61.890182495117
 21
-367.768005991618
 31
0.0
  0
LINE
  8
ZEICHNUNG
  6
AUSGEZOGEN
 62
           1
  5
88
 10
-64.890182495117
 20
-357.768005991618
 30
0.0
 11
-61.890182495117
 21
-357.768005991618
 31
0.0
  0
LINE
  8
BEMAßUNG
  6
STRICHPUNKT
 62
           2
  5
89
 10
59.219635009766
 20
-362.768005991618
 30
0.0
 11
39.219635009766
 21
-362.768005991618
 31
0.0
  0
LINE
  8
ZEICHNUNG
  6
AUSGEZOGEN
 62
           1
  5
8A
 10
53.109817504883
 20
-367.768005991618
 30
0.0
 11
53.109817504883
 21
-357.768005991618
 31
0.0
  0
LINE
  8
ZEICHNUNG
  6
AUSGEZOGEN
 62
           1
  5
8B
 10
53.109817504883
 20
-367.768005991618
 30
0.0
 11
50.109817504883
 21
-367.768005991618
 31
0.0
  0
LINE
  8
ZEICHNUNG
  6
AUSGEZOGEN
 62
           1
  5
8C
 10
53.109817504883
 20
-357.768005991618
 30
0.0
 11
50.109817504883
 21
-357.768005991618
 31
0.0
  0
LINE
  8
ZEICHNUNG
  6
AUSGEZOGEN
 62
           1
  5
8D
 10
53.109817504883
 20
-218.76801743571
 30
0.0
 11
53.109817504883
 21
-228.76801743571
 31
0.0
  0
LINE
  8
ZEICHNUNG
  6
AUSGEZOGEN
 62
           1
  5
8E
 10
53.109817504883
 20
-218.76801743571
 30
0.0
 11
50.109817504883
 21
-218.76801743571
 31
0.0
  0
LINE
  8
ZEICHNUNG
  6
AUSGEZOGEN
 62
           1
  5
8F
 10
53.109817504883
 20
-228.76801743571
 30
0.0
 11
50.109817504883
 21
-228.76801743571
 31
0.0
  0
CIRCLE
  8
ZEICHNUNG
  6
AUSGEZOGEN
 62
           1
  5
90
 10
24.109817504883
 20
-360.268005991618
 30
0.0
 40
9.0
  0
LINE
  8
BEMAßUNG
  6
STRICHPUNKT
 62
           2
  5
91
 10
-52.860468371718
 20
-360.268021250407
 30
0.0
 11
38.857528686523
 21
-360.268021250407
 31
0.0
  0
CIRCLE
  8
ZEICHNUNG
  6
AUSGEZOGEN
 62
           1
  5
92
 10
24.109817504883
 20
-360.268021250407
 30
0.0
 40
9.0
  0
CIRCLE
  8
ZEICHNUNG
  6
AUSGEZOGEN
 62
           1
  5
93
 10
24.109817504883
 20
-360.268021250407
 30
0.0
 40
6.0
  0
CIRCLE
  8
ZEICHNUNG
  6
AUSGEZOGEN
 62
           1
  5
94
 10
-35.890182495117
 20
-360.268021250407
 30
0.0
 40
9.0
  0
CIRCLE
  8
ZEICHNUNG
  6
AUSGEZOGEN
 62
           1
  5
95
 10
-35.890182495117
 20
-360.268021250407
 30
0.0
 40
3.0
  0
CIRCLE
  8
ZEICHNUNG
  6
AUSGEZOGEN
 62
           1
  5
96
 10
-35.890182495117
 20
-360.268036509196
 30
0.0
 40
9.0
  0
CIRCLE
  8
ZEICHNUNG
  6
AUSGEZOGEN
 62
           1
  5
97
 10
-35.890182495117
 20
-360.268036509196
 30
0.0
 40
6.0
  0
LINE
  8
BEMAßUNG
  6
STRICHPUNKT
 62
           2
  5
98
 10
-52.570790625678
 20
-305.268021250407
 30
0.0
 11
39.163223266602
 21
-305.268021250407
 31
0.0
  0
CIRCLE
  8
UNSICHTBARE
  6
VERDECKT
 62
           2
  5
99
 10
24.109817504883
 20
-305.268021250407
 30
0.0
 40
12.0
  0
CIRCLE
  8
UNSICHTBARE
  6
VERDECKT
 62
           2
  5
9A
 10
-35.890182495117
 20
-305.268021250407
 30
0.0
 40
12.0
  0
CIRCLE
  8
UNSICHTBARE
  6
VERDECKT
 62
           2
  5
9B
 10
-35.890182495117
 20
-360.268021250407
 30
0.0
 40
12.0
  0
CIRCLE
  8
UNSICHTBARE
  6
VERDECKT
 62
           2
  5
9C
 10
24.109817504883
 20
-360.268021250407
 30
0.0
 40
12.0
  0
LINE
  8
UNSICHTBARE
  6
VERDECKT
 62
           2
  5
9D
 10
-9.890182495117
 20
-223.76801743571
 30
0.0
 11
-9.890182495117
 21
-208.76801743571
 31
0.0
  0
LINE
  8
UNSICHTBARE
  6
VERDECKT
 62
           2
  5
9E
 10
-1.890182495117
 20
-223.76801743571
 30
0.0
 11
-1.890182495117
 21
-208.76801743571
 31
0.0
  0
LINE
  8
UNSICHTBARE
  6
VERDECKT
 62
           2
  5
9F
 10
-8.890182495117
 20
-223.76801743571
 30
0.0
 11
-8.890182495117
 21
-208.76801743571
 31
0.0
  0
LINE
  8
UNSICHTBARE
  6
VERDECKT
 62
           2
  5
A0
 10
-2.890182495117
 20
-223.76801743571
 30
0.0
 11
-2.890182495117
 21
-208.76801743571
 31
0.0
  0
LINE
  8
UNSICHTBARE
  6
VERDECKT
 62
           2
  5
A1
 10
-44.890182495117
 20
-223.76801743571
 30
0.0
 11
-44.890182495117
 21
-208.76801743571
 31
0.0
  0
LINE
  8
UNSICHTBARE
  6
VERDECKT
 62
           2
  5
A2
 10
-36.890182495117
 20
-223.76801743571
 30
0.0
 11
-36.890182495117
 21
-208.76801743571
 31
0.0
  0
LINE
  8
UNSICHTBARE
  6
VERDECKT
 62
           2
  5
A3
 10
-43.890182495117
 20
-223.76801743571
 30
0.0
 11
-43.890182495117
 21
-208.76801743571
 31
0.0
  0
LINE
  8
UNSICHTBARE
  6
VERDECKT
 62
           2
  5
A4
 10
-37.890182495117
 20
-223.76801743571
 30
0.0
 11
-37.890182495117
 21
-208.76801743571
 31
0.0
  0
LINE
  8
UNSICHTBARE
  6
VERDECKT
 62
           2
  5
A5
 10
25.109817504883
 20
-223.76801743571
 30
0.0
 11
25.109817504883
 21
-208.76801743571
 31
0.0
  0
LINE
  8
UNSICHTBARE
  6
VERDECKT
 62
           2
  5
A6
 10
33.109817504883
 20
-223.76801743571
 30
0.0
 11
33.109817504883
 21
-208.76801743571
 31
0.0
  0
LINE
  8
UNSICHTBARE
  6
VERDECKT
 62
           2
  5
A7
 10
26.109817504883
 20
-223.76801743571
 30
0.0
 11
26.109817504883
 21
-208.76801743571
 31
0.0
  0
LINE
  8
UNSICHTBARE
  6
VERDECKT
 62
           2
  5
A8
 10
32.109817504883
 20
-223.76801743571
 30
0.0
 11
32.109817504883
 21
-208.76801743571
 31
0.0
  0
ARC
  8
MITTELLINIEN
  6
AUSGEZOGEN
 62
           2
  5
A9
 10
24.109817504883
 20
-305.268021250407
 30
0.0
 40
3.0
 50
23.268107044403
 51
288.010261903267
  0
CIRCLE
  8
ZEICHNUNG
  6
AUSGEZOGEN
 62
           1
  5
AA
 10
24.109817504883
 20
-305.268021250407
 30
0.0
 40
2.5
  0
ARC
  8
MITTELLINIEN
  6
AUSGEZOGEN
 62
           2
  5
AB
 10
-35.890182495117
 20
-305.268021250407
 30
0.0
 40
3.0
 50
23.268107044403
 51
288.010261903267
  0
CIRCLE
  8
ZEICHNUNG
  6
AUSGEZOGEN
 62
           1
  5
AC
 10
-35.890182495117
 20
-305.268021250407
 30
0.0
 40
2.5
  0
LINE
  8
BEMAßUNG
  6
STRICHPUNKT
 62
           2
  5
AD
 10
41.121240436967
 20
-223.76801743571
 30
0.0
 11
55.254317588978
 21
-223.76801743571
 31
0.0
  0
LINE
  8
BEMAßUNG
  6
STRICHPUNKT
 62
           2
  5
AE
 10
-66.831412702859
 20
-223.76801743571
 30
0.0
 11
-51.796224243273
 21
-223.76801743571
 31
0.0
  0
LINE
  8
ZEICHNUNG
  6
AUSGEZOGEN
 62
           1
  5
AF
 10
194.909820556641
 20
-244.268021250407
 30
0.0
 11
202.609817504883
 21
-244.268021250407
 31
0.0
  0
LINE
  8
ZEICHNUNG
  6
AUSGEZOGEN
 62
           1
  5
B0
 10
194.909820556641
 20
-244.268021250407
 30
0.0
 11
194.909820556641
 21
-240.268021250407
 31
0.0
  0
LINE
  8
ZEICHNUNG
  6
AUSGEZOGEN
 62
           1
  5
B1
 10
194.909820556641
 20
-240.268021250407
 30
0.0
 11
197.109817504883
 21
-240.268021250407
 31
0.0
  0
LINE
  8
ZEICHNUNG
  6
AUSGEZOGEN
 62
           1
  5
B2
 10
197.859817504883
 20
-224.26801743571
 30
0.0
 11
204.011734008789
 21
-224.26801743571
 31
0.0
  0
LINE
  8
ZEICHNUNG
  6
AUSGEZOGEN
 62
           1
  5
B3
 10
194.909820556641
 20
-234.26801743571
 30
0.0
 11
194.909820556641
 21
-229.568014383952
 31
0.0
  0
LINE
  8
ZEICHNUNG
  6
AUSGEZOGEN
 62
           1
  5
B4
 10
197.859817504883
 20
-229.568014383952
 30
0.0
 11
197.859817504883
 21
-224.26801743571
 31
0.0
  0
LINE
  8
ZEICHNUNG
  6
AUSGEZOGEN
 62
           1
  5
B5
 10
197.109817504883
 20
-240.268021250407
 30
0.0
 11
197.109817504883
 21
-234.26801743571
 31
0.0
  0
LINE
  8
ZEICHNUNG
  6
AUSGEZOGEN
 62
           1
  5
B6
 10
200.609817504883
 20
-232.76801743571
 30
0.0
 11
200.609817504883
 21
-228.76801743571
 31
0.0
  0
LINE
  8
ZEICHNUNG
  6
AUSGEZOGEN
 62
           1
  5
B7
 10
202.609817504883
 20
-234.76801743571
 30
0.0
 11
204.609817504883
 21
-234.76801743571
 31
0.0
  0
LINE
  8
ZEICHNUNG
  6
AUSGEZOGEN
 62
           1
  5
B8
 10
202.609817504883
 20
-226.76801743571
 30
0.0
 11
204.609817504883
 21
-226.76801743571
 31
0.0
  0
CIRCLE
  8
ZEICHNUNG
  6
AUSGEZOGEN
 62
           1
  5
B9
 10
204.609817504883
 20
-230.76801743571
 30
0.0
 40
4.0
  0
LINE
  8
BEMAßUNG
  6
STRICHPUNKT
 62
           2
  5
BA
 10
199.886703491211
 20
-230.76801743571
 30
0.0
 11
209.045547485352
 21
-230.76801743571
 31
0.0
  0
LINE
  8
BEMAßUNG
  6
STRICHPUNKT
 62
           2
  5
BB
 10
204.609817504883
 20
-235.323574686686
 30
0.0
 11
204.609817504883
 21
-226.332005167643
 31
0.0
  0
LINE
  8
ZEICHNUNG
  6
AUSGEZOGEN
 62
           1
  5
BC
 10
206.609817504883
 20
-226.860249186198
 30
0.0
 11
206.609817504883
 21
-225.76801743571
 31
0.0
  0
LINE
  8
ZEICHNUNG
  6
AUSGEZOGEN
 62
           1
  5
BD
 10
206.609817504883
 20
-235.76801743571
 30
0.0
 11
206.609817504883
 21
-234.675785685221
 31
0.0
  0
LINE
  8
ZEICHNUNG
  6
AUSGEZOGEN
 62
           1
  5
BE
 10
206.609817504883
 20
-225.76801743571
 30
0.0
 11
204.011734008789
 21
-224.26801743571
 31
0.0
  0
LINE
  8
ZEICHNUNG
  6
AUSGEZOGEN
 62
           1
  5
BF
 10
202.609817504883
 20
-238.077414815267
 30
0.0
 11
206.609817504883
 21
-235.76801743571
 31
0.0
  0
LINE
  8
ZEICHNUNG
  6
AUSGEZOGEN
 62
           1
  5
C0
 10
207.209823608398
 20
-227.728283548991
 30
0.0
 11
207.209823608398
 21
-226.068020487467
 31
0.0
  0
LINE
  8
ZEICHNUNG
  6
AUSGEZOGEN
 62
           1
  5
C1
 10
207.209823608398
 20
-235.468014383952
 30
0.0
 11
207.209823608398
 21
-233.807751322428
 31
0.0
  0
LINE
  8
UNSICHTBARE
  6
VERDECKT
 62
           2
  5
C2
 10
231.209823608398
 20
-227.728283548991
 30
0.0
 11
231.209823608398
 21
-226.068020487467
 31
0.0
  0
LINE
  8
UNSICHTBARE
  6
VERDECKT
 62
           2
  5
C3
 10
231.209823608398
 20
-235.468014383952
 30
0.0
 11
231.209823608398
 21
-233.807751322428
 31
0.0
  0
LINE
  8
UNSICHTBARE
  6
VERDECKT
 62
           2
  5
C4
 10
225.109817504883
 20
-225.26801743571
 30
0.0
 11
230.409820556641
 21
-225.26801743571
 31
0.0
  0
LINE
  8
UNSICHTBARE
  6
VERDECKT
 62
           2
  5
C5
 10
208.009826660156
 20
-225.26801743571
 30
0.0
 11
213.309829711914
 21
-225.26801743571
 31
0.0
  0
LINE
  8
UNSICHTBARE
  6
VERDECKT
 62
           2
  5
C6
 10
230.409820556641
 20
-236.26801743571
 30
0.0
 11
208.009826660156
 21
-236.26801743571
 31
0.0
  0
ARC
  8
UNSICHTBARE
  6
VERDECKT
 62
           2
  5
C7
 10
233.809829711914
 20
-230.76801743571
 30
0.0
 40
4.0
 50
130.541717304302
 51
229.458282695698
  0
LINE
  8
UNSICHTBARE
  6
VERDECKT
 62
           2
  5
C8
 10
230.409820556641
 20
-225.26801743571
 30
0.0
 11
231.209823608398
 21
-226.068020487467
 31
0.0
  0
LINE
  8
UNSICHTBARE
  6
VERDECKT
 62
           2
  5
C9
 10
231.209823608398
 20
-235.468014383952
 30
0.0
 11
230.409820556641
 21
-236.26801743571
 31
0.0
  0
LINE
  8
ZEICHNUNG
  6
AUSGEZOGEN
 62
           1
  5
CA
 10
207.766036987305
 20
-236.024227762858
 30
0.0
 11
207.209823608398
 21
-235.468014383952
 31
0.0
  0
LINE
  8
UNSICHTBARE
  6
VERDECKT
 62
           2
  5
CB
 10
208.009826660156
 20
-236.26801743571
 30
0.0
 11
207.766036987305
 21
-236.024227762858
 31
0.0
  0
LINE
  8
UNSICHTBARE
  6
VERDECKT
 62
           2
  5
CC
 10
207.766036987305
 20
-225.511807108561
 30
0.0
 11
208.009826660156
 21
-225.26801743571
 31
0.0
  0
LINE
  8
ZEICHNUNG
  6
AUSGEZOGEN
 62
           1
  5
CD
 10
207.209823608398
 20
-226.068020487467
 30
0.0
 11
207.766036987305
 21
-225.511807108561
 31
0.0
  0
LINE
  8
UNSICHTBARE
  6
VERDECKT
 62
           2
  5
CE
 10
213.309829711914
 20
-225.26801743571
 30
0.0
 11
213.309829711914
 21
-223.76801743571
 31
0.0
  0
LINE
  8
UNSICHTBARE
  6
VERDECKT
 62
           2
  5
CF
 10
225.109817504883
 20
-225.26801743571
 30
0.0
 11
225.109817504883
 21
-223.76801743571
 31
0.0
  0
ARC
  8
ZEICHNUNG
  6
AUSGEZOGEN
 62
           1
  5
D0
 10
202.609817504883
 20
-228.76801743571
 30
0.0
 40
2.0
 50
90.000002504478
 51
180.000005008956
  0
ARC
  8
ZEICHNUNG
  6
AUSGEZOGEN
 62
           1
  5
D1
 10
202.609817504883
 20
-232.76801743571
 30
0.0
 40
2.0
 50
180.000005008957
 51
269.999997495521
  0
LINE
  8
ZEICHNUNG
  6
AUSGEZOGEN
 62
           1
  5
D2
 10
206.609817504883
 20
-226.860249186198
 30
0.0
 11
206.009811401367
 21
-227.02101578776
 31
0.0
  0
LINE
  8
ZEICHNUNG
  6
AUSGEZOGEN
 62
           1
  5
D3
 10
206.609817504883
 20
-234.675785685221
 30
0.0
 11
206.009811401367
 21
-234.515019083659
 31
0.0
  0
ARC
  8
ZEICHNUNG
  6
AUSGEZOGEN
 62
           1
  5
D4
 10
204.609817504883
 20
-230.76801743571
 30
0.0
 40
4.0
 50
310.541667899115
 51
49.458332100884
  0
ARC
  8
ZEICHNUNG
  6
AUSGEZOGEN
 62
           1
  5
D5
 10
204.609817504883
 20
-230.76801743571
 30
0.0
 40
4.0
 50
69.5128022777
 51
90.000022995045
  0
ARC
  8
ZEICHNUNG
  6
AUSGEZOGEN
 62
           1
  5
D6
 10
204.609817504883
 20
-230.76801743571
 30
0.0
 40
4.0
 50
269.999977004954
 51
290.487197722298
  0
LINE
  8
ZEICHNUNG
  6
AUSGEZOGEN
 62
           1
  5
D7
 10
176.009811401367
 20
-227.728283548991
 30
0.0
 11
176.009811401367
 21
-226.068020487467
 31
0.0
  0
LINE
  8
ZEICHNUNG
  6
AUSGEZOGEN
 62
           1
  5
D8
 10
176.009811401367
 20
-235.468014383952
 30
0.0
 11
176.009811401367
 21
-233.807751322428
 31
0.0
  0
LINE
  8
UNSICHTBARE
  6
VERDECKT
 62
           2
  5
D9
 10
152.009811401367
 20
-227.728283548991
 30
0.0
 11
152.009811401367
 21
-226.068020487467
 31
0.0
  0
LINE
  8
UNSICHTBARE
  6
VERDECKT
 62
           2
  5
DA
 10
152.009811401367
 20
-235.468014383952
 30
0.0
 11
152.009811401367
 21
-233.807751322428
 31
0.0
  0
LINE
  8
UNSICHTBARE
  6
VERDECKT
 62
           2
  5
DB
 10
158.109817504883
 20
-225.26801743571
 30
0.0
 11
152.809814453125
 21
-225.26801743571
 31
0.0
  0
LINE
  8
UNSICHTBARE
  6
VERDECKT
 62
           2
  5
DC
 10
175.209808349609
 20
-225.26801743571
 30
0.0
 11
169.909805297852
 21
-225.26801743571
 31
0.0
  0
LINE
  8
UNSICHTBARE
  6
VERDECKT
 62
           2
  5
DD
 10
152.809814453125
 20
-236.26801743571
 30
0.0
 11
175.209808349609
 21
-236.26801743571
 31
0.0
  0
ARC
  8
UNSICHTBARE
  6
VERDECKT
 62
           2
  5
DE
 10
149.409805297852
 20
-230.76801743571
 30
0.0
 40
4.0
 50
310.54171571044
 51
49.45828428956
  0
LINE
  8
UNSICHTBARE
  6
VERDECKT
 62
           2
  5
DF
 10
152.809814453125
 20
-225.26801743571
 30
0.0
 11
152.009811401367
 21
-226.068020487467
 31
0.0
  0
LINE
  8
UNSICHTBARE
  6
VERDECKT
 62
           2
  5
E0
 10
152.009811401367
 20
-235.468014383952
 30
0.0
 11
152.809814453125
 21
-236.26801743571
 31
0.0
  0
LINE
  8
ZEICHNUNG
  6
AUSGEZOGEN
 62
           1
  5
E1
 10
175.453598022461
 20
-236.024227762858
 30
0.0
 11
176.009811401367
 21
-235.468014383952
 31
0.0
  0
LINE
  8
UNSICHTBARE
  6
VERDECKT
 62
           2
  5
E2
 10
175.209808349609
 20
-236.26801743571
 30
0.0
 11
175.453598022461
 21
-236.024227762858
 31
0.0
  0
LINE
  8
UNSICHTBARE
  6
VERDECKT
 62
           2
  5
E3
 10
175.453598022461
 20
-225.511807108561
 30
0.0
 11
175.209808349609
 21
-225.26801743571
 31
0.0
  0
LINE
  8
ZEICHNUNG
  6
AUSGEZOGEN
 62
           1
  5
E4
 10
176.009811401367
 20
-226.068020487467
 30
0.0
 11
175.453598022461
 21
-225.511807108561
 31
0.0
  0
LINE
  8
UNSICHTBARE
  6
VERDECKT
 62
           2
  5
E5
 10
169.909805297852
 20
-225.26801743571
 30
0.0
 11
169.909805297852
 21
-223.76801743571
 31
0.0
  0
LINE
  8
UNSICHTBARE
  6
VERDECKT
 62
           2
  5
E6
 10
158.109817504883
 20
-225.26801743571
 30
0.0
 11
158.109817504883
 21
-223.76801743571
 31
0.0
  0
LINE
  8
UNSICHTBARE
  6
VERDECKT
 62
           2
  5
E7
 10
158.109817504883
 20
-223.76801743571
 30
0.0
 11
169.909805297852
 21
-223.76801743571
 31
0.0
  0
ARC
  8
ZEICHNUNG
  6
AUSGEZOGEN
 62
           1
  5
E8
 10
178.609817504883
 20
-230.76801743571
 30
0.0
 40
4.0
 50
130.541662662789
 51
229.458337337211
  0
LINE
  8
UNSICHTBARE
  6
VERDECKT
 62
           2
  5
E9
 10
225.109817504883
 20
-223.76801743571
 30
0.0
 11
213.309829711914
 21
-223.76801743571
 31
0.0
  0
LINE
  8
ZEICHNUNG
  6
AUSGEZOGEN
 62
           1
  5
EA
 10
234.609817504883
 20
-239.768021250407
 30
0.0
 11
234.609817504883
 21
-208.76801743571
 31
0.0
  0
LINE
  8
ZEICHNUNG
  6
AUSGEZOGEN
 62
           1
  5
EB
 10
209.409820556641
 20
-226.460843332807
 30
0.0
 11
204.22607421875
 21
-223.468014383952
 31
0.0
  0
LINE
  8
ZEICHNUNG
  6
AUSGEZOGEN
 62
           1
  5
EC
 10
204.409820556641
 20
-237.961941385905
 30
0.0
 11
209.409820556641
 21
-235.075188306838
 31
0.0
  0
LINE
  8
ZEICHNUNG
  6
AUSGEZOGEN
 62
           1
  5
ED
 10
204.409820556641
 20
-239.768021250407
 30
0.0
 11
204.409820556641
 21
-237.961941385905
 31
0.0
  0
LINE
  8
ZEICHNUNG
  6
AUSGEZOGEN
 62
           1
  5
EE
 10
209.409820556641
 20
-235.075188306838
 30
0.0
 11
209.409820556641
 21
-226.460843332807
 31
0.0
  0
LINE
  8
ZEICHNUNG
  6
AUSGEZOGEN
 62
           1
  5
EF
 10
204.409820556641
 20
-239.768021250407
 30
0.0
 11
234.609817504883
 21
-239.768021250407
 31
0.0
  0
LINE
  8
ZEICHNUNG
  6
AUSGEZOGEN
 62
           1
  5
F0
 10
234.609817504883
 20
-208.76801743571
 30
0.0
 11
148.609817504883
 21
-208.76801743571
 31
0.0
  0
LINE
  8
ZEICHNUNG
  6
AUSGEZOGEN
 62
           1
  5
F1
 10
148.609817504883
 20
-239.768021250407
 30
0.0
 11
148.609817504883
 21
-208.76801743571
 31
0.0
  0
LINE
  8
ZEICHNUNG
  6
AUSGEZOGEN
 62
           1
  5
F2
 10
204.22607421875
 20
-223.468014383952
 30
0.0
 11
178.993560791016
 21
-223.468014383952
 31
0.0
  0
LINE
  8
ZEICHNUNG
  6
AUSGEZOGEN
 62
           1
  5
F3
 10
173.809814453125
 20
-226.460843332807
 30
0.0
 11
178.993560791016
 21
-223.468014383952
 31
0.0
  0
LINE
  8
ZEICHNUNG
  6
AUSGEZOGEN
 62
           1
  5
F4
 10
178.809814453125
 20
-237.961941385905
 30
0.0
 11
173.809814453125
 21
-235.075188306838
 31
0.0
  0
LINE
  8
ZEICHNUNG
  6
AUSGEZOGEN
 62
           1
  5
F5
 10
178.809814453125
 20
-239.768021250407
 30
0.0
 11
178.809814453125
 21
-237.961941385905
 31
0.0
  0
LINE
  8
ZEICHNUNG
  6
AUSGEZOGEN
 62
           1
  5
F6
 10
173.809814453125
 20
-235.075188306838
 30
0.0
 11
173.809814453125
 21
-226.460843332807
 31
0.0
  0
LINE
  8
ZEICHNUNG
  6
AUSGEZOGEN
 62
           1
  5
F7
 10
178.809814453125
 20
-239.768021250407
 30
0.0
 11
148.609817504883
 21
-239.768021250407
 31
0.0
  0
LINE
  8
UNSICHTBARE
  6
VERDECKT
 62
           2
  5
F8
 10
228.209823608398
 20
-217.2646833903
 30
0.0
 11
228.209823608398
 21
-208.76801743571
 31
0.0
  0
LINE
  8
UNSICHTBARE
  6
VERDECKT
 62
           2
  5
F9
 10
210.209823608398
 20
-217.2646833903
 30
0.0
 11
210.209823608398
 21
-208.76801743571
 31
0.0
  0
LINE
  8
UNSICHTBARE
  6
VERDECKT
 62
           2
  5
FA
 10
210.209823608398
 20
-217.2646833903
 30
0.0
 11
228.209823608398
 21
-217.2646833903
 31
0.0
  0
LINE
  8
ZEICHNUNG
  6
AUSGEZOGEN
 62
           1
  5
FB
 10
188.309814453125
 20
-244.268021250407
 30
0.0
 11
180.609817504883
 21
-244.268021250407
 31
0.0
  0
LINE
  8
ZEICHNUNG
  6
AUSGEZOGEN
 62
           1
  5
FC
 10
188.309814453125
 20
-244.268021250407
 30
0.0
 11
188.309814453125
 21
-240.268021250407
 31
0.0
  0
LINE
  8
ZEICHNUNG
  6
AUSGEZOGEN
 62
           1
  5
FD
 10
188.309814453125
 20
-240.268021250407
 30
0.0
 11
186.109817504883
 21
-240.268021250407
 31
0.0
  0
LINE
  8
ZEICHNUNG
  6
AUSGEZOGEN
 62
           1
  5
FE
 10
197.109817504883
 20
-234.26801743571
 30
0.0
 11
186.109817504883
 21
-234.26801743571
 31
0.0
  0
LINE
  8
ZEICHNUNG
  6
AUSGEZOGEN
 62
           1
  5
FF
 10
185.359817504883
 20
-224.26801743571
 30
0.0
 11
179.207901000977
 21
-224.26801743571
 31
0.0
  0
LINE
  8
ZEICHNUNG
  6
AUSGEZOGEN
 62
           1
  5
100
 10
188.309814453125
 20
-234.26801743571
 30
0.0
 11
188.309814453125
 21
-229.568014383952
 31
0.0
  0
LINE
  8
ZEICHNUNG
  6
AUSGEZOGEN
 62
           1
  5
101
 10
185.359817504883
 20
-229.568014383952
 30
0.0
 11
185.359817504883
 21
-224.26801743571
 31
0.0
  0
LINE
  8
ZEICHNUNG
  6
AUSGEZOGEN
 62
           1
  5
102
 10
186.109817504883
 20
-240.268021250407
 30
0.0
 11
186.109817504883
 21
-234.26801743571
 31
0.0
  0
LINE
  8
ZEICHNUNG
  6
AUSGEZOGEN
 62
           1
  5
103
 10
182.609817504883
 20
-232.76801743571
 30
0.0
 11
182.609817504883
 21
-228.76801743571
 31
0.0
  0
LINE
  8
ZEICHNUNG
  6
AUSGEZOGEN
 62
           1
  5
104
 10
180.609817504883
 20
-234.76801743571
 30
0.0
 11
178.609817504883
 21
-234.76801743571
 31
0.0
  0
LINE
  8
ZEICHNUNG
  6
AUSGEZOGEN
 62
           1
  5
105
 10
180.609817504883
 20
-226.76801743571
 30
0.0
 11
178.609817504883
 21
-226.76801743571
 31
0.0
  0
CIRCLE
  8
ZEICHNUNG
  6
AUSGEZOGEN
 62
           1
  5
106
 10
178.609817504883
 20
-230.76801743571
 30
0.0
 40
4.0
  0
LINE
  8
BEMAßUNG
  6
STRICHPUNKT
 62
           2
  5
107
 10
183.332931518555
 20
-230.76801743571
 30
0.0
 11
174.174087524414
 21
-230.76801743571
 31
0.0
  0
LINE
  8
BEMAßUNG
  6
STRICHPUNKT
 62
           2
  5
108
 10
178.609817504883
 20
-235.323574686686
 30
0.0
 11
178.609817504883
 21
-226.332005167643
 31
0.0
  0
LINE
  8
ZEICHNUNG
  6
AUSGEZOGEN
 62
           1
  5
109
 10
176.609817504883
 20
-226.860249186198
 30
0.0
 11
176.609817504883
 21
-225.76801743571
 31
0.0
  0
LINE
  8
ZEICHNUNG
  6
AUSGEZOGEN
 62
           1
  5
10A
 10
176.609817504883
 20
-235.76801743571
 30
0.0
 11
176.609817504883
 21
-234.675785685221
 31
0.0
  0
LINE
  8
ZEICHNUNG
  6
AUSGEZOGEN
 62
           1
  5
10B
 10
176.609817504883
 20
-225.76801743571
 30
0.0
 11
179.207901000977
 21
-224.26801743571
 31
0.0
  0
LINE
  8
ZEICHNUNG
  6
AUSGEZOGEN
 62
           1
  5
10C
 10
180.609817504883
 20
-238.077414815267
 30
0.0
 11
176.609817504883
 21
-235.76801743571
 31
0.0
  0
LINE
  8
ZEICHNUNG
  6
AUSGEZOGEN
 62
           1
  5
10D
 10
197.859817504883
 20
-229.568014383952
 30
0.0
 11
185.359817504883
 21
-229.568014383952
 31
0.0
  0
ARC
  8
ZEICHNUNG
  6
AUSGEZOGEN
 62
           1
  5
10E
 10
180.609817504883
 20
-228.76801743571
 30
0.0
 40
2.0
 50
359.999994991043
 51
89.999995674289
  0
ARC
  8
ZEICHNUNG
  6
AUSGEZOGEN
 62
           1
  5
10F
 10
180.609817504883
 20
-232.76801743571
 30
0.0
 40
2.0
 50
270.00000432571
 51
359.999994991042
  0
LINE
  8
ZEICHNUNG
  6
AUSGEZOGEN
 62
           1
  5
110
 10
176.609817504883
 20
-226.860249186198
 30
0.0
 11
177.209823608398
 21
-227.02101578776
 31
0.0
  0
LINE
  8
ZEICHNUNG
  6
AUSGEZOGEN
 62
           1
  5
111
 10
176.609817504883
 20
-234.675785685221
 30
0.0
 11
177.209823608398
 21
-234.515019083659
 31
0.0
  0
ARC
  8
ZEICHNUNG
  6
AUSGEZOGEN
 62
           1
  5
112
 10
178.609817504883
 20
-230.76801743571
 30
0.0
 40
4.0
 50
89.999975183722
 51
110.487195901065
  0
ARC
  8
ZEICHNUNG
  6
AUSGEZOGEN
 62
           1
  5
113
 10
178.609817504883
 20
-230.76801743571
 30
0.0
 40
4.0
 50
249.512804098933
 51
270.000024816278
  0
LINE
  8
BEMAßUNG
  6
STRICHPUNKT
 62
           2
  5
114
 10
191.609817504883
 20
-246.473698282878
 30
0.0
 11
191.609817504883
 21
-205.598477030436
 31
0.0
  0
LINE
  8
BEMAßUNG
  6
STRICHPUNKT
 62
           2
  5
115
 10
221.109817504883
 20
-225.0
 30
0.0
 11
221.109817504883
 21
-205.598477030436
 31
0.0
  0
LINE
  8
BEMAßUNG
  6
STRICHPUNKT
 62
           2
  5
116
 10
162.109817504883
 20
-225.0
 30
0.0
 11
162.109817504883
 21
-205.598477030436
 31
0.0
  0
CIRCLE
  8
ZEICHNUNG
  6
AUSGEZOGEN
 62
           1
  5
117
 10
161.609817504883
 20
-223.468014383952
 30
0.0
 40
4.0
  0
LINE
  8
UNSICHTBARE
  6
VERDECKT
 62
           2
  5
118
 10
158.109817504883
 20
-223.76801743571
 30
0.0
 11
158.109817504883
 21
-208.76801743571
 31
0.0
  0
LINE
  8
UNSICHTBARE
  6
VERDECKT
 62
           2
  5
119
 10
166.109817504883
 20
-223.76801743571
 30
0.0
 11
166.109817504883
 21
-208.76801743571
 31
0.0
  0
LINE
  8
UNSICHTBARE
  6
VERDECKT
 62
           2
  5
11A
 10
159.109817504883
 20
-223.76801743571
 30
0.0
 11
159.109817504883
 21
-208.76801743571
 31
0.0
  0
LINE
  8
UNSICHTBARE
  6
VERDECKT
 62
           2
  5
11B
 10
165.109817504883
 20
-223.76801743571
 30
0.0
 11
165.109817504883
 21
-208.76801743571
 31
0.0
  0
LINE
  8
UNSICHTBARE
  6
VERDECKT
 62
           2
  5
11C
 10
187.609817504883
 20
-223.468014383952
 30
0.0
 11
187.609817504883
 21
-208.76801743571
 31
0.0
  0
LINE
  8
UNSICHTBARE
  6
VERDECKT
 62
           2
  5
11D
 10
195.609817504883
 20
-223.468014383952
 30
0.0
 11
195.609817504883
 21
-208.76801743571
 31
0.0
  0
LINE
  8
UNSICHTBARE
  6
VERDECKT
 62
           2
  5
11E
 10
188.609817504883
 20
-223.468014383952
 30
0.0
 11
188.609817504883
 21
-208.76801743571
 31
0.0
  0
LINE
  8
UNSICHTBARE
  6
VERDECKT
 62
           2
  5
11F
 10
194.609817504883
 20
-223.468014383952
 30
0.0
 11
194.609817504883
 21
-208.76801743571
 31
0.0
  0
LINE
  8
UNSICHTBARE
  6
VERDECKT
 62
           2
  5
120
 10
217.109817504883
 20
-223.76801743571
 30
0.0
 11
217.109817504883
 21
-208.76801743571
 31
0.0
  0
LINE
  8
UNSICHTBARE
  6
VERDECKT
 62
           2
  5
121
 10
225.109817504883
 20
-223.76801743571
 30
0.0
 11
225.109817504883
 21
-208.76801743571
 31
0.0
  0
LINE
  8
UNSICHTBARE
  6
VERDECKT
 62
           2
  5
122
 10
218.109817504883
 20
-223.76801743571
 30
0.0
 11
218.109817504883
 21
-208.76801743571
 31
0.0
  0
LINE
  8
UNSICHTBARE
  6
VERDECKT
 62
           2
  5
123
 10
224.109817504883
 20
-223.76801743571
 30
0.0
 11
224.109817504883
 21
-208.76801743571
 31
0.0
  0
LINE
  8
BEMAßUNG
  6
STRICHPUNKT
 62
           2
  5
124
 10
161.609817504883
 20
-228.793096873489
 30
0.0
 11
161.609817504883
 21
-218.68553815018
 31
0.0
  0
LINE
  8
BEMAßUNG
  6
STRICHPUNKT
 62
           2
  5
125
 10
156.327388351044
 20
-223.76801743571
 30
0.0
 11
166.669171583131
 21
-223.76801743571
 31
0.0
  0
CIRCLE
  8
ZEICHNUNG
  6
AUSGEZOGEN
 62
           1
  5
126
 10
161.609817504883
 20
-223.76801743571
 30
0.0
 40
1.0
  0
LINE
  8
BEMAßUNG
  6
STRICHPUNKT
 62
           2
  5
127
 10
221.609817504883
 20
-228.793096873489
 30
0.0
 11
221.609817504883
 21
-218.68553815018
 31
0.0
  0
LINE
  8
BEMAßUNG
  6
STRICHPUNKT
 62
           2
  5
128
 10
226.892246658721
 20
-223.76801743571
 30
0.0
 11
216.550463426635
 21
-223.76801743571
 31
0.0
  0
CIRCLE
  8
ZEICHNUNG
  6
AUSGEZOGEN
 62
           1
  5
129
 10
221.609817504883
 20
-223.76801743571
 30
0.0
 40
4.0
  0
CIRCLE
  8
ZEICHNUNG
  6
AUSGEZOGEN
 62
           1
  5
12A
 10
221.609817504883
 20
-223.76801743571
 30
0.0
 40
1.0
  0
LINE
  8
BEMAßUNG
  6
STRICHPUNKT
 62
           2
  5
12B
 10
219.109817504883
 20
-240.0
 30
0.0
 11
219.109817504883
 21
-206.941799598414
 31
0.0
  0
LINE
  8
BEMAßUNG
  6
STRICHPUNKT
 62
           2
  5
12C
 10
164.109817504883
 20
-240.0
 30
0.0
 11
164.109817504883
 21
-207.256062012383
 31
0.0
  0
LINE
  8
ZEICHNUNG
  6
AUSGEZOGEN
 62
           1
  5
12D
 10
180.609817504883
 20
-244.268021250407
 30
0.0
 11
180.609817504883
 21
-238.077414815267
 31
0.0
  0
LINE
  8
ZEICHNUNG
  6
AUSGEZOGEN
 62
           1
  5
12E
 10
202.609817504883
 20
-244.268021250407
 30
0.0
 11
202.609817504883
 21
-238.077414815267
 31
0.0
  0
INSERT
  8
MITTELLINIEN
  6
AUSGEZOGEN
 62
           2
  5
12F
  2
*X3
 10
0.0
 20
0.0
 30
0.0
  0
LINE
  8
ZEICHNUNG
  6
AUSGEZOGEN
 62
           1
  5
130
 10
53.109817504883
 20
-226.76801743571
 30
0.0
 11
68.344865058496
 21
-226.76801743571
 31
0.0
  0
LINE
  8
ZEICHNUNG
  6
AUSGEZOGEN
 62
           1
  5
131
 10
-128.890182495117
 20
-226.76801743571
 30
0.0
 11
-64.890182495117
 21
-226.76801743571
 31
0.0
  0
LINE
  8
ZEICHNUNG
  6
AUSGEZOGEN
 62
           1
  5
132
 10
50.109817504883
 20
-234.76801743571
 30
0.0
 11
67.644955750289
 21
-234.76801743571
 31
0.0
  0
LINE
  8
ZEICHNUNG
  6
AUSGEZOGEN
 62
           1
  5
133
 10
-128.890182495117
 20
-234.76801743571
 30
0.0
 11
-61.890182495117
 21
-234.76801743571
 31
0.0
  0
LINE
  8
ZEICHNUNG
  6
AUSGEZOGEN
 62
           1
  5
134
 10
50.109817504883
 20
-238.077414815267
 30
0.0
 11
67.355420996475
 21
-238.077414815267
 31
0.0
  0
LINE
  8
ZEICHNUNG
  6
AUSGEZOGEN
 62
           1
  5
135
 10
-128.890182495117
 20
-238.077414815267
 30
0.0
 11
-61.890182495117
 21
-238.077414815267
 31
0.0
  0
ENDSEC
  0
EOF
