  0
SECTION
  2
HEADER
  9
$ACADVER
  1
AC1009
  9
$INSBASE
 10
0.0
 20
0.0
 30
0.0
  9
$EXTMIN
 10
-260.0
 20
-132.768021250407
 30
0.0
  9
$EXTMAX
 10
275.0
 20
80.731978749593
 30
0.0
  9
$LIMMIN
 10
-260.0
 20
-132.768021250407
  9
$LIMMAX
 10
275.0
 20
80.731978749593
  9
$ORTHOMODE
 70
           0
  9
$REGENMODE
 70
           1
  9
$FILLMODE
 70
           1
  9
$QTEXTMODE
 70
           0
  9
$MIRRTEXT
 70
           1
  9
$DRAGMODE
 70
           2
  9
$LTSCALE
 40
5.0
  9
$OSMODE
 70
           0
  9
$ATTMODE
 70
           1
  9
$TEXTSIZE
 40
0.2
  9
$TRACEWID
 40
0.05
  9
$TEXTSTYLE
  7
TXT
  9
$CLAYER
  8
0
  9
$CELTYPE
  6
CONTINUOUS
  9
$CECOLOR
 62
         256
  9
$DIMSCALE
 40
1.0
  9
$DIMASZ
 40
3.5
  9
$DIMEXO
 40
0.0625
  9
$DIMDLI
 40
0.38
  9
$DIMRND
 40
0.0
  9
$DIMDLE
 40
0.0
  9
$DIMEXE
 40
0.18
  9
$DIMTP
 40
0.0
  9
$DIMTM
 40
0.0
  9
$DIMTXT
 40
3.5
  9
$DIMCEN
 40
0.09
  9
$DIMTSZ
 40
0.0
  9
$DIMTOL
 70
           0
  9
$DIMLIM
 70
           0
  9
$DIMTIH
 70
           1
  9
$DIMTOH
 70
           1
  9
$DIMSE1
 70
           0
  9
$DIMSE2
 70
           0
  9
$DIMTAD
 70
           0
  9
$DIMZIN
 70
           0
  9
$DIMBLK
  1

  9
$DIMASO
 70
           1
  9
$DIMSHO
 70
           1
  9
$DIMPOST
  1

  9
$DIMAPOST
  1

  9
$DIMALT
 70
           0
  9
$DIMALTD
 70
           2
  9
$DIMALTF
 40
25.4
  9
$DIMLFAC
 40
1.0
  9
$DIMTOFL
 70
           0
  9
$DIMTVP
 40
0.0
  9
$DIMTIX
 70
           0
  9
$DIMSOXD
 70
           0
  9
$DIMSAH
 70
           0
  9
$DIMBLK1
  1

  9
$DIMBLK2
  1

  9
$DIMSTYLE
  2
STANDARD
  9
$DIMCLRD
 70
           0
  9
$DIMCLRE
 70
           0
  9
$DIMCLRT
 70
           0
  9
$DIMTFAC
 40
1.0
  9
$DIMGAP
 40
0.09
  9
$LUNITS
 70
           2
  9
$LUPREC
 70
           2
  9
$AXISMODE
 70
           0
  9
$AXISUNIT
 10
0.0
 20
0.0
  9
$SKETCHINC
 40
0.1
  9
$FILLETRAD
 40
0.0
  9
$AUNITS
 70
           0
  9
$AUPREC
 70
           2
  9
$MENU
  1
acad
  9
$ELEVATION
 40
0.0
  9
$PELEVATION
 40
0.0
  9
$THICKNESS
 40
0.0
  9
$LIMCHECK
 70
           0
  9
$BLIPMODE
 70
           1
  9
$CHAMFERA
 40
0.0
  9
$CHAMFERB
 40
0.0
  9
$SKPOLY
 70
           0
  9
$TDCREATE
 40
0.000000000
  9
$TDUPDATE
 40
0.000000000
  9
$TDINDWG
 40
0.0000000000
  9
$TDUSRTIMER
 40
0.0000000000
  9
$USRTIMER
 70
           1
  9
$ANGBASE
 50
0.0
  9
$ANGDIR
 70
           0
  9
$PDMODE
 70
           2
  9
$PDSIZE
 40
0.5
  9
$PLINEWID
 40
0.0
  9
$COORDS
 70
           0
  9
$SPLFRAME
 70
           0
  9
$SPLINETYPE
 70
           6
  9
$SPLINESEGS
 70
           8
  9
$ATTDIA
 70
           0
  9
$ATTREQ
 70
           1
  9
$HANDLING
 70
           1
  9
$HANDSEED
  5
159
  9
$SURFTAB1
 70
           6
  9
$SURFTAB2
 70
           6
  9
$SURFTYPE
 70
           6
  9
$SURFU
 70
           6
  9
$SURFV
 70
           6
  9
$UCSNAME
  2

  9
$UCSORG
 10
0.0
 20
0.0
 30
0.0
  9
$UCSXDIR
 10
1.0
 20
0.0
 30
0.0
  9
$UCSYDIR
 10
0.0
 20
1.0
 30
0.0
  9
$PUCSNAME
  2

  9
$PUCSORG
 10
0.0
 20
0.0
 30
0.0
  9
$PUCSXDIR
 10
1.0
 20
0.0
 30
0.0
  9
$PUCSYDIR
 10
0.0
 20
1.0
 30
0.0
  9
$USERI1
 70
           0
  9
$USERI2
 70
           0
  9
$USERI3
 70
           0
  9
$USERI4
 70
           0
  9
$USERI5
 70
           0
  9
$USERR1
 40
0.0
  9
$USERR2
 40
0.0
  9
$USERR3
 40
0.0
  9
$USERR4
 40
0.0
  9
$USERR5
 40
0.0
  9
$WORLDVIEW
 70
           1
  9
$SHADEDGE
 70
           3
  9
$SHADEDIF
 70
          70
  9
$TILEMODE
 70
           1
  9
$MAXACTVP
 70
          16
  9
$PINSBASE
 10
0.0
 20
0.0
 30
0.0
  9
$PLIMCHECK
 70
           0
  9
$PEXTMIN
 10
1.000000000000E+20
 20
1.000000000000E+20
 30
1.000000000000E+20
  9
$PEXTMAX
 10
-1.000000000000E+20
 20
-1.000000000000E+20
 30
-1.000000000000E+20
  9
$PLIMMIN
 10
0.0
 20
0.0
  9
$PLIMMAX
 10
12.0
 20
9.0
  9
$UNITMODE
 70
           0
  9
$VISRETAIN
 70
           0
  9
$PLINEGEN
 70
           1
  9
$PSLTSCALE
 70
           0
  9
$TREEDEPTH
 70
        3020
  9
$DWGCODEPAGE
  3
dos850
  0
ENDSEC
  0
SECTION
  2
TABLES
  0
TABLE
  2
VPORT
 70
           1
  0
VPORT
  2
*ACTIVE
 70
           0
 10
0.0
 20
0.0
 11
1.0
 21
1.0
 12
6.591288
 22
4.579184
 13
0.0
 23
0.0
 14
1.0
 24
1.0
 15
0.0
 25
0.0
 16
0.0
 26
0.0
 36
1.0
 17
0.0
 27
0.0
 37
0.0
 40
9.158369
 41
0.688564
 42
50.0
 43
0.0
 44
0.0
 50
0.0
 51
0.0
 71
           0
 72
         100
 73
           1
 74
           1
 75
           0
 76
           0
 77
           0
 78
           0
  0
ENDTAB
  0
TABLE
  2
LTYPE
 70
           4
  0
LTYPE
  2
CONTINUOUS
 70
          64
  3
Solid line
 72
          65
 73
           0
 40
0.0
  0
LTYPE
  2
AUSGEZOGEN
 70
           0
  3

 72
          65
 73
           2
 40
0.5
 49
0.25
 49
-0.25
  0
LTYPE
  2
VERDECKT
 70
           0
  3

 72
          65
 73
           2
 40
0.375
 49
0.25
 49
-0.125
  0
LTYPE
  2
STRICHPUNKT
 70
           0
  3

 72
          65
 73
           4
 40
1.0
 49
0.5
 49
-0.25
 49
0.0
 49
-0.25
  0
ENDTAB
  0
TABLE
  2
LAYER
 70
           6
  0
LAYER
  2
0
 70
           0
 62
           7
  6
CONTINUOUS
  0
LAYER
  2
OBERFLäCHENZEICHEN
 70
           0
 62
           7
  6
CONTINUOUS
  0
LAYER
  2
ZEICHNUNG
 70
           0
 62
           7
  6
CONTINUOUS
  0
LAYER
  2
BEMAßUNG
 70
           0
 62
           7
  6
CONTINUOUS
  0
LAYER
  2
UNSICHTBARE
 70
           0
 62
           7
  6
CONTINUOUS
  0
LAYER
  2
MITTELLINIEN
 70
           0
 62
           7
  6
CONTINUOUS
  0
ENDTAB
  0
TABLE
  2
STYLE
 70
           1
  0
STYLE
  2
TXT
 70
           0
 40
3.5
 41
1.0
 50
0.0
 71
           0
 42
3.5
  3
TXT
  4

  0
ENDTAB
  0
TABLE
  2
VIEW
 70
           0
  0
ENDTAB
  0
TABLE
  2
UCS
 70
           0
  0
ENDTAB
  0
TABLE
  2
APPID
 70
           2
  0
APPID
  2
ACAD
 70
           0
  0
APPID
  2
MegaCADPntStyle
 70
           0
  0
ENDTAB
  0
TABLE
  2
DIMSTYLE
 70
           1
  0
DIMSTYLE
  2
STANDARD
 70
           0
  3

  4

  5

  6

  7

 40
1.0
 41
0.18
 42
0.0625
 43
0.38
 44
0.18
 45
0.0
 46
0.0
 47
0.0
 48
0.0
 71
           0
 72
           0
 73
           1
 74
           1
 75
           0
 76
           0
 77
           0
 78
           0
140
0.18
141
0.09
142
0.0
143
25.4
144
1.0
145
0.0
146
1.0
147
0.09
170
           0
171
           2
172
           0
173
           0
174
           0
175
           0
176
           0
177
           0
178
           0
  0
ENDTAB
  0
ENDSEC
  0
SECTION
  2
BLOCKS
  0
BLOCK
  8
0
  5
124
  2
ELIPPSE
 70
          64
 10
0.0
 20
0.0
 30
0.0
  3
ELIPPSE
  0
CIRCLE
  8
0
  6
BYBLOCK
 62
           0
  5
125
 10
0.0
 20
0.0
 30
0.0
 40
1.0
  0
ENDBLK
  8
0
  6
BYBLOCK
 62
           0
  5
126
  0
BLOCK
  8
0
  5
127
  2
M10ANS_1
 70
          64
 10
0.0
 20
0.0
 30
0.0
  3
M10ANS_1
  0
LINE
  8
ZEICHNUNG
  6
AUSGEZOGEN
 62
           1
  5
128
 10
-8.5
 20
-4.907485961914
 30
0.0
 11
-8.5
 21
4.907455444336
 31
0.0
  0
LINE
  8
ZEICHNUNG
  6
AUSGEZOGEN
 62
           1
  5
129
 10
8.500007629395
 20
-4.907501220703
 30
0.0
 11
8.500007629395
 21
4.907470703125
 31
0.0
  0
LINE
  8
ZEICHNUNG
  6
AUSGEZOGEN
 62
           1
  5
12A
 10
8.500007629395
 20
-4.907501220703
 30
0.0
 11
0.000015258789
 21
-9.814971923828
 31
0.0
  0
LINE
  8
ZEICHNUNG
  6
AUSGEZOGEN
 62
           1
  5
12B
 10
0.000015258789
 20
9.81494140625
 30
0.0
 11
-8.5
 21
4.907455444336
 31
0.0
  0
LINE
  8
ZEICHNUNG
  6
AUSGEZOGEN
 62
           1
  5
12C
 10
8.500007629395
 20
4.907470703125
 30
0.0
 11
0.000015258789
 21
9.81494140625
 31
0.0
  0
LINE
  8
ZEICHNUNG
  6
AUSGEZOGEN
 62
           1
  5
12D
 10
0.000015258789
 20
-9.814971923828
 30
0.0
 11
-8.5
 21
-4.907485961914
 31
0.0
  0
CIRCLE
  8
MITTELLINIEN
  6
AUSGEZOGEN
 62
           2
  5
12E
 10
0.000015258789
 20
-0.000015258789
 30
0.0
 40
8.5
  0
ENDBLK
  8
0
  6
BYBLOCK
 62
           0
  5
12F
  0
BLOCK
  8
0
  5
130
  2
M10ANS_2
 70
          64
 10
0.0
 20
0.0
 30
0.0
  3
M10ANS_2
  0
LINE
  8
ZEICHNUNG
  6
AUSGEZOGEN
 62
           1
  5
131
 10
-8.5
 20
-4.907485961914
 30
0.0
 11
-8.5
 21
4.907455444336
 31
0.0
  0
LINE
  8
ZEICHNUNG
  6
AUSGEZOGEN
 62
           1
  5
132
 10
8.500007629395
 20
-4.907501220703
 30
0.0
 11
8.500007629395
 21
4.907470703125
 31
0.0
  0
LINE
  8
ZEICHNUNG
  6
AUSGEZOGEN
 62
           1
  5
133
 10
8.500007629395
 20
-4.907501220703
 30
0.0
 11
0.000015258789
 21
-9.814971923828
 31
0.0
  0
LINE
  8
ZEICHNUNG
  6
AUSGEZOGEN
 62
           1
  5
134
 10
0.000015258789
 20
9.81494140625
 30
0.0
 11
-8.5
 21
4.907455444336
 31
0.0
  0
LINE
  8
ZEICHNUNG
  6
AUSGEZOGEN
 62
           1
  5
135
 10
8.500007629395
 20
4.907470703125
 30
0.0
 11
0.000015258789
 21
9.81494140625
 31
0.0
  0
LINE
  8
ZEICHNUNG
  6
AUSGEZOGEN
 62
           1
  5
136
 10
0.000015258789
 20
-9.814971923828
 30
0.0
 11
-8.5
 21
-4.907485961914
 31
0.0
  0
CIRCLE
  8
MITTELLINIEN
  6
AUSGEZOGEN
 62
           2
  5
137
 10
0.000015258789
 20
-0.000015258789
 30
0.0
 40
8.5
  0
ENDBLK
  8
0
  6
BYBLOCK
 62
           0
  5
138
  0
BLOCK
  8
0
  5
139
  2
*X3
 70
          65
 10
0.0
 20
0.0
 30
0.0
  3
*X3
  0
LINE
  8
0
  6
BYBLOCK
 62
           0
  5
13A
 10
207.408168982842
 20
20.731978749593
 30
0.0
 11
210.609817504883
 21
23.933627271634
 31
0.0
  0
LINE
  8
0
  6
BYBLOCK
 62
           0
  5
13B
 10
203.165528295722
 20
20.731978749593
 30
0.0
 11
210.609817504883
 21
28.176267958754
 31
0.0
  0
LINE
  8
0
  6
BYBLOCK
 62
           0
  5
13C
 10
198.922887608603
 20
20.731978749593
 30
0.0
 11
210.609817504883
 21
32.418908645873
 31
0.0
  0
LINE
  8
0
  6
BYBLOCK
 62
           0
  5
13D
 10
212.45772231877
 20
34.26681345976
 30
0.0
 11
217.109817504883
 21
38.918908645873
 31
0.0
  0
LINE
  8
0
  6
BYBLOCK
 62
           0
  5
13E
 10
197.109817504883
 20
23.161549332992
 30
0.0
 11
213.780245395605
 21
39.831977223714
 31
0.0
  0
LINE
  8
0
  6
BYBLOCK
 62
           0
  5
13F
 10
200.859817504883
 20
31.154190020111
 30
0.0
 11
210.306312926305
 21
40.600685441533
 31
0.0
  0
LINE
  8
0
  6
BYBLOCK
 62
           0
  5
140
 10
200.859817504883
 20
35.396830707231
 30
0.0
 11
209.609817504883
 21
44.146830707231
 31
0.0
  0
LINE
  8
0
  6
BYBLOCK
 62
           0
  5
141
 10
215.253374492807
 20
49.790387695155
 30
0.0
 11
217.109817504883
 21
51.646830707231
 31
0.0
  0
LINE
  8
0
  6
BYBLOCK
 62
           0
  5
142
 10
181.952324860126
 20
20.731978749593
 30
0.0
 11
186.109817504883
 21
24.88947139435
 31
0.0
  0
LINE
  8
0
  6
BYBLOCK
 62
           0
  5
143
 10
197.352326386005
 20
36.131980275472
 30
0.0
 11
214.854457208877
 21
53.634111098344
 31
0.0
  0
LINE
  8
0
  6
BYBLOCK
 62
           0
  5
144
 10
177.709684173007
 20
20.731978749593
 30
0.0
 11
184.109685698886
 21
27.131980275472
 31
0.0
  0
LINE
  8
0
  6
BYBLOCK
 62
           0
  5
145
 10
197.109817504883
 20
40.132112081469
 30
0.0
 11
211.709684173007
 21
54.731978749593
 31
0.0
  0
LINE
  8
0
  6
BYBLOCK
 62
           0
  5
146
 10
173.467043485887
 20
20.731978749593
 30
0.0
 11
182.359817504883
 21
29.624752768589
 31
0.0
  0
LINE
  8
0
  6
BYBLOCK
 62
           0
  5
147
 10
197.109817504883
 20
44.374752768589
 30
0.0
 11
200.467043485887
 21
47.731978749593
 31
0.0
  0
LINE
  8
0
  6
BYBLOCK
 62
           0
  5
148
 10
200.859817504883
 20
48.124752768589
 30
0.0
 11
207.467043485887
 21
54.731978749593
 31
0.0
  0
LINE
  8
0
  6
BYBLOCK
 62
           0
  5
149
 10
172.609817504883
 20
24.117393455708
 30
0.0
 11
182.359817504883
 21
33.867393455708
 31
0.0
  0
LINE
  8
0
  6
BYBLOCK
 62
           0
  5
14A
 10
184.624404324647
 20
36.131980275472
 30
0.0
 11
186.109817504883
 21
37.617393455708
 31
0.0
  0
LINE
  8
0
  6
BYBLOCK
 62
           0
  5
14B
 10
200.859817504883
 20
52.367393455708
 30
0.0
 11
203.224402798768
 21
54.731978749593
 31
0.0
  0
LINE
  8
0
  6
BYBLOCK
 62
           0
  5
14C
 10
172.609817504883
 20
28.360034142827
 30
0.0
 11
186.109817504883
 21
41.860034142827
 31
0.0
  0
LINE
  8
0
  6
BYBLOCK
 62
           0
  5
14D
 10
172.609817504883
 20
32.602674829946
 30
0.0
 11
186.109817504883
 21
46.102674829946
 31
0.0
  0
LINE
  8
0
  6
BYBLOCK
 62
           0
  5
14E
 10
170.298732540552
 20
34.534230552735
 30
0.0
 11
183.49648073741
 21
47.731978749593
 31
0.0
  0
LINE
  8
0
  6
BYBLOCK
 62
           0
  5
14F
 10
167.609005786941
 20
36.087144486243
 30
0.0
 11
171.367114077758
 21
39.84525277706
 31
0.0
  0
LINE
  8
0
  6
BYBLOCK
 62
           0
  5
150
 10
173.596541951537
 20
42.074680650839
 30
0.0
 11
182.359817504883
 21
50.837956204185
 31
0.0
  0
LINE
  8
0
  6
BYBLOCK
 62
           0
  5
151
 10
166.109817504883
 20
38.830596891304
 30
0.0
 11
167.288849496428
 21
40.00962888285
 31
0.0
  0
LINE
  8
0
  6
BYBLOCK
 62
           0
  5
152
 10
173.609817504883
 20
46.330596891304
 30
0.0
 11
182.011199363172
 21
54.731978749593
 31
0.0
  0
LINE
  8
0
  6
BYBLOCK
 62
           0
  5
153
 10
172.467664481451
 20
49.431084554992
 30
0.0
 11
177.768558676052
 21
54.731978749593
 31
0.0
  0
LINE
  8
0
  6
BYBLOCK
 62
           0
  5
154
 10
168.625916463054
 20
49.831977223714
 30
0.0
 11
173.525917988933
 21
54.731978749593
 31
0.0
  0
LINE
  8
0
  6
BYBLOCK
 62
           0
  5
155
 10
166.109817504883
 20
51.558518952662
 30
0.0
 11
167.939841343952
 21
53.388542791731
 31
0.0
  0
ENDBLK
  8
0
  6
BYBLOCK
 62
           0
  5
156
  0
ENDSEC
  0
SECTION
  2
ENTITIES
  0
INSERT
  8
OBERFLäCHENZEICHEN
  6
AUSGEZOGEN
 62
           9
  5
2A
  2
M10ANS_1
 10
-40.890197753906
 20
-111.268005991618
 30
0.0
  0
INSERT
  8
OBERFLäCHENZEICHEN
  6
AUSGEZOGEN
 62
           9
  5
2B
  2
M10ANS_2
 10
29.109802246094
 20
-111.268005991618
 30
0.0
  0
LINE
  8
BEMAßUNG
  6
STRICHPUNKT
 62
           2
  5
2C
 10
-260.0
 20
-67.768021250407
 30
0.0
 11
275.0
 21
-67.768021250407
 31
0.0
  0
LINE
  8
ZEICHNUNG
  6
AUSGEZOGEN
 62
           1
  5
2D
 10
-73.890182495117
 20
-2.768021250407
 30
0.0
 11
62.109809875488
 21
-2.768021250407
 31
0.0
  0
LINE
  8
ZEICHNUNG
  6
AUSGEZOGEN
 62
           1
  5
2E
 10
-73.890182495117
 20
-132.768021250407
 30
0.0
 11
62.109809875488
 21
-132.768021250407
 31
0.0
  0
LINE
  8
ZEICHNUNG
  6
AUSGEZOGEN
 62
           1
  5
2F
 10
62.109809875488
 20
-2.768021250407
 30
0.0
 11
62.109809875488
 21
-132.768021250407
 31
0.0
  0
LINE
  8
ZEICHNUNG
  6
AUSGEZOGEN
 62
           1
  5
30
 10
-73.890182495117
 20
-2.768021250407
 30
0.0
 11
-73.890182495117
 21
-132.768021250407
 31
0.0
  0
LINE
  8
BEMAßUNG
  6
STRICHPUNKT
 62
           2
  5
31
 10
-5.890182495117
 20
-2.768021250407
 30
0.0
 11
-5.890182495117
 21
-132.768021250407
 31
0.0
  0
LINE
  8
BEMAßUNG
  6
STRICHPUNKT
 62
           2
  5
32
 10
-18.208297729492
 20
-22.768021250407
 30
0.0
 11
6.791702270508
 21
-22.768021250407
 31
0.0
  0
LINE
  8
BEMAßUNG
  6
STRICHPUNKT
 62
           2
  5
33
 10
-18.208297729492
 20
-112.768021250407
 30
0.0
 11
6.791702270508
 21
-112.768021250407
 31
0.0
  0
CIRCLE
  8
ZEICHNUNG
  6
AUSGEZOGEN
 62
           1
  5
34
 10
29.109817504883
 20
-67.768021250407
 30
0.0
 40
4.0
  0
CIRCLE
  8
ZEICHNUNG
  6
AUSGEZOGEN
 62
           1
  5
35
 10
-5.890182495117
 20
-112.768021250407
 30
0.0
 40
4.0
  0
CIRCLE
  8
ZEICHNUNG
  6
AUSGEZOGEN
 62
           1
  5
36
 10
-5.890182495117
 20
-22.768021250407
 30
0.0
 40
4.0
  0
CIRCLE
  8
ZEICHNUNG
  6
AUSGEZOGEN
 62
           1
  5
37
 10
-40.890182495117
 20
-67.768021250407
 30
0.0
 40
4.0
  0
ARC
  8
MITTELLINIEN
  6
AUSGEZOGEN
 62
           2
  5
38
 10
29.109817504883
 20
-67.768021250407
 30
0.0
 40
5.0
 50
349.999997672743
 51
260.000000290906
  0
ARC
  8
MITTELLINIEN
  6
AUSGEZOGEN
 62
           2
  5
39
 10
-5.890182495117
 20
-112.768021250407
 30
0.0
 40
5.0
 50
349.999997672743
 51
260.000000290906
  0
ARC
  8
MITTELLINIEN
  6
AUSGEZOGEN
 62
           2
  5
3A
 10
-5.890182495117
 20
-22.768021250407
 30
0.0
 40
5.0
 50
349.999997672743
 51
260.000000290906
  0
ARC
  8
MITTELLINIEN
  6
AUSGEZOGEN
 62
           2
  5
3B
 10
-40.890182495117
 20
-67.768021250407
 30
0.0
 40
4.622846126556
 50
357.633731277851
 51
293.274074502493
  0
LINE
  8
BEMAßUNG
  6
STRICHPUNKT
 62
           2
  5
3C
 10
-40.890182495117
 20
-2.768021250407
 30
0.0
 11
-40.890182495117
 21
-132.768021250407
 31
0.0
  0
LINE
  8
BEMAßUNG
  6
STRICHPUNKT
 62
           2
  5
3D
 10
29.109817504883
 20
-2.768021250407
 30
0.0
 11
29.109817504883
 21
-132.768021250407
 31
0.0
  0
LINE
  8
BEMAßUNG
  6
STRICHPUNKT
 62
           2
  5
3E
 10
-68.208297729492
 20
-111.268021250407
 30
0.0
 11
56.791702270508
 21
-111.268021250407
 31
0.0
  0
CIRCLE
  8
ZEICHNUNG
  6
AUSGEZOGEN
 62
           1
  5
3F
 10
-40.890182495117
 20
-111.268021250407
 30
0.0
 40
5.0
  0
CIRCLE
  8
ZEICHNUNG
  6
AUSGEZOGEN
 62
           1
  5
40
 10
-40.890182495117
 20
-111.268021250407
 30
0.0
 40
13.0
  0
CIRCLE
  8
ZEICHNUNG
  6
AUSGEZOGEN
 62
           1
  5
41
 10
29.109817504883
 20
-111.268021250407
 30
0.0
 40
5.0
  0
CIRCLE
  8
ZEICHNUNG
  6
AUSGEZOGEN
 62
           1
  5
42
 10
29.109817504883
 20
-111.268021250407
 30
0.0
 40
13.0
  0
LINE
  8
BEMAßUNG
  6
STRICHPUNKT
 62
           2
  5
43
 10
-68.208297729492
 20
-24.268021250407
 30
0.0
 11
56.791702270508
 21
-24.268021250407
 31
0.0
  0
CIRCLE
  8
ZEICHNUNG
  6
AUSGEZOGEN
 62
           1
  5
44
 10
-40.890182495117
 20
-24.268021250407
 30
0.0
 40
4.0
  0
ARC
  8
MITTELLINIEN
  6
AUSGEZOGEN
 62
           2
  5
45
 10
-40.890182495117
 20
-24.268021250407
 30
0.0
 40
5.0
 50
349.999997672743
 51
260.000000290906
  0
CIRCLE
  8
ZEICHNUNG
  6
AUSGEZOGEN
 62
           1
  5
46
 10
29.109817504883
 20
-24.268021250407
 30
0.0
 40
4.0
  0
ARC
  8
MITTELLINIEN
  6
AUSGEZOGEN
 62
           2
  5
47
 10
29.109817504883
 20
-24.268021250407
 30
0.0
 40
5.0
 50
349.999997672743
 51
260.000000290906
  0
CIRCLE
  8
UNSICHTBARE
  6
VERDECKT
 62
           2
  5
48
 10
29.109817504883
 20
-24.268021250407
 30
0.0
 40
17.5
  0
CIRCLE
  8
UNSICHTBARE
  6
VERDECKT
 62
           2
  5
49
 10
-40.890182495117
 20
-24.268021250407
 30
0.0
 40
17.5
  0
CIRCLE
  8
UNSICHTBARE
  6
VERDECKT
 62
           2
  5
4A
 10
-40.890182495117
 20
-111.268021250407
 30
0.0
 40
17.5
  0
CIRCLE
  8
UNSICHTBARE
  6
VERDECKT
 62
           2
  5
4B
 10
29.109817504883
 20
-111.268021250407
 30
0.0
 40
17.5
  0
LINE
  8
ZEICHNUNG
  6
AUSGEZOGEN
 62
           1
  5
4C
 10
-253.890182495117
 20
20.731978749593
 30
0.0
 11
80.873692327931
 21
20.731978749593
 31
0.0
  0
LINE
  8
ZEICHNUNG
  6
AUSGEZOGEN
 62
           1
  5
4D
 10
-253.890182495117
 20
20.731978749593
 30
0.0
 11
-253.890182495117
 21
54.731978749593
 31
0.0
  0
LINE
  8
BEMAßUNG
  6
STRICHPUNKT
 62
           2
  5
4E
 10
80.476182399791
 20
16.188419480094
 30
0.0
 11
84.383266397297
 21
60.846593922868
 31
0.0
  0
ARC
  8
MITTELLINIEN
  6
AUSGEZOGEN
 62
           2
  5
4F
 10
29.109817504883
 20
-111.268021250407
 30
0.0
 40
4.0
 50
27.988812372791
 51
292.141430699829
  0
ARC
  8
MITTELLINIEN
  6
AUSGEZOGEN
 62
           2
  5
50
 10
-40.890182495117
 20
-111.268021250407
 30
0.0
 40
4.0
 50
30.348895923526
 51
289.272286721392
  0
LINE
  8
ZEICHNUNG
  6
AUSGEZOGEN
 62
           1
  5
51
 10
65.109809875488
 20
54.731978749593
 30
0.0
 11
83.848306887812
 21
54.731978749593
 31
0.0
  0
LINE
  8
UNSICHTBARE
  6
VERDECKT
 62
           2
  5
52
 10
-76.890182495117
 20
54.731978749593
 30
0.0
 11
65.109809875488
 21
54.731978749593
 31
0.0
  0
LINE
  8
ZEICHNUNG
  6
AUSGEZOGEN
 62
           1
  5
53
 10
-253.890182495117
 20
54.731978749593
 30
0.0
 11
-76.890182495117
 21
54.731978749593
 31
0.0
  0
LINE
  8
ZEICHNUNG
  6
AUSGEZOGEN
 62
           1
  5
54
 10
-253.890182495117
 20
-95.768021250407
 30
0.0
 11
-253.890182495117
 21
-39.768021250407
 31
0.0
  0
LINE
  8
ZEICHNUNG
  6
AUSGEZOGEN
 62
           1
  5
55
 10
62.109809875488
 20
-39.768021250407
 30
0.0
 11
263.258952716341
 21
-39.768021250407
 31
0.0
  0
LINE
  8
UNSICHTBARE
  6
VERDECKT
 62
           2
  5
56
 10
-73.890182495117
 20
-39.768021250407
 30
0.0
 11
62.109809875488
 21
-39.768021250407
 31
0.0
  0
LINE
  8
ZEICHNUNG
  6
AUSGEZOGEN
 62
           1
  5
57
 10
-253.890182495117
 20
-39.768021250407
 30
0.0
 11
-73.890182495117
 21
-39.768021250407
 31
0.0
  0
LINE
  8
ZEICHNUNG
  6
AUSGEZOGEN
 62
           1
  5
58
 10
62.109809875488
 20
-95.768021250407
 30
0.0
 11
258.359587558889
 21
-95.768021250407
 31
0.0
  0
LINE
  8
UNSICHTBARE
  6
VERDECKT
 62
           2
  5
59
 10
-73.890182495117
 20
-95.768021250407
 30
0.0
 11
62.109809875488
 21
-95.768021250407
 31
0.0
  0
LINE
  8
ZEICHNUNG
  6
AUSGEZOGEN
 62
           1
  5
5A
 10
-253.890182495117
 20
-95.768021250407
 30
0.0
 11
-73.890182495117
 21
-95.768021250407
 31
0.0
  0
LINE
  8
BEMAßUNG
  6
STRICHPUNKT
 62
           2
  5
5B
 10
-83.0
 20
-18.768021250407
 30
0.0
 11
-63.0
 21
-18.768021250407
 31
0.0
  0
LINE
  8
ZEICHNUNG
  6
AUSGEZOGEN
 62
           1
  5
5C
 10
-76.890182495117
 20
-13.768021250407
 30
0.0
 11
-76.890182495117
 21
-23.768021250407
 31
0.0
  0
LINE
  8
ZEICHNUNG
  6
AUSGEZOGEN
 62
           1
  5
5D
 10
-76.890182495117
 20
-13.768021250407
 30
0.0
 11
-73.890182495117
 21
-13.768021250407
 31
0.0
  0
LINE
  8
ZEICHNUNG
  6
AUSGEZOGEN
 62
           1
  5
5E
 10
-76.890182495117
 20
-23.768021250407
 30
0.0
 11
-73.890182495117
 21
-23.768021250407
 31
0.0
  0
LINE
  8
BEMAßUNG
  6
STRICHPUNKT
 62
           2
  5
5F
 10
-83.0
 20
-116.768021250407
 30
0.0
 11
-63.0
 21
-116.768021250407
 31
0.0
  0
LINE
  8
ZEICHNUNG
  6
AUSGEZOGEN
 62
           1
  5
60
 10
-76.890182495117
 20
-111.768021250407
 30
0.0
 11
-76.890182495117
 21
-121.768021250407
 31
0.0
  0
LINE
  8
ZEICHNUNG
  6
AUSGEZOGEN
 62
           1
  5
61
 10
-76.890182495117
 20
-111.768021250407
 30
0.0
 11
-73.890182495117
 21
-111.768021250407
 31
0.0
  0
LINE
  8
ZEICHNUNG
  6
AUSGEZOGEN
 62
           1
  5
62
 10
-76.890182495117
 20
-121.768021250407
 30
0.0
 11
-73.890182495117
 21
-121.768021250407
 31
0.0
  0
LINE
  8
BEMAßUNG
  6
STRICHPUNKT
 62
           2
  5
63
 10
71.219627380371
 20
-116.768021250407
 30
0.0
 11
51.219627380371
 21
-116.768021250407
 31
0.0
  0
LINE
  8
ZEICHNUNG
  6
AUSGEZOGEN
 62
           1
  5
64
 10
65.109809875488
 20
-111.768021250407
 30
0.0
 11
65.109809875488
 21
-121.768021250407
 31
0.0
  0
LINE
  8
ZEICHNUNG
  6
AUSGEZOGEN
 62
           1
  5
65
 10
65.109809875488
 20
-111.768021250407
 30
0.0
 11
62.109809875488
 21
-111.768021250407
 31
0.0
  0
LINE
  8
ZEICHNUNG
  6
AUSGEZOGEN
 62
           1
  5
66
 10
65.109809875488
 20
-121.768021250407
 30
0.0
 11
62.109809875488
 21
-121.768021250407
 31
0.0
  0
LINE
  8
BEMAßUNG
  6
STRICHPUNKT
 62
           2
  5
67
 10
71.219627380371
 20
-18.768021250407
 30
0.0
 11
51.219627380371
 21
-18.768021250407
 31
0.0
  0
LINE
  8
ZEICHNUNG
  6
AUSGEZOGEN
 62
           1
  5
68
 10
65.109809875488
 20
-13.768021250407
 30
0.0
 11
65.109809875488
 21
-23.768021250407
 31
0.0
  0
LINE
  8
ZEICHNUNG
  6
AUSGEZOGEN
 62
           1
  5
69
 10
65.109809875488
 20
-13.768021250407
 30
0.0
 11
62.109809875488
 21
-13.768021250407
 31
0.0
  0
LINE
  8
ZEICHNUNG
  6
AUSGEZOGEN
 62
           1
  5
6A
 10
65.109809875488
 20
-23.768021250407
 30
0.0
 11
62.109809875488
 21
-23.768021250407
 31
0.0
  0
LINE
  8
ZEICHNUNG
  6
AUSGEZOGEN
 62
           1
  5
6B
 10
62.109809875488
 20
-58.518021250407
 30
0.0
 11
261.61854027523
 21
-58.518021250407
 31
0.0
  0
LINE
  8
UNSICHTBARE
  6
VERDECKT
 62
           2
  5
6C
 10
-73.890182495117
 20
-58.518021250407
 30
0.0
 11
62.109809875488
 21
-58.518021250407
 31
0.0
  0
LINE
  8
ZEICHNUNG
  6
AUSGEZOGEN
 62
           1
  5
6D
 10
-253.890182495117
 20
-58.518021250407
 30
0.0
 11
-73.890182495117
 21
-58.518021250407
 31
0.0
  0
LINE
  8
ZEICHNUNG
  6
AUSGEZOGEN
 62
           1
  5
6E
 10
62.109809875488
 20
-77.018021250407
 30
0.0
 11
260.0
 21
-77.018021250407
 31
0.0
  0
LINE
  8
UNSICHTBARE
  6
VERDECKT
 62
           2
  5
6F
 10
-73.890182495117
 20
-77.018021250407
 30
0.0
 11
62.109809875488
 21
-77.018021250407
 31
0.0
  0
LINE
  8
ZEICHNUNG
  6
AUSGEZOGEN
 62
           1
  5
70
 10
-253.890182495117
 20
-77.018021250407
 30
0.0
 11
-73.890182495117
 21
-77.018021250407
 31
0.0
  0
CIRCLE
  8
ZEICHNUNG
  6
AUSGEZOGEN
 62
           1
  5
71
 10
-130.890182495117
 20
-67.768021250407
 30
0.0
 40
5.5
  0
LINE
  8
BEMAßUNG
  6
STRICHPUNKT
 62
           2
  5
72
 10
119.109817504883
 20
-55.0
 30
0.0
 11
119.109817504883
 21
-80.0
 31
0.0
  0
LINE
  8
BEMAßUNG
  6
STRICHPUNKT
 62
           2
  5
73
 10
257.722412661187
 20
-103.050963657145
 30
0.0
 11
263.593862140179
 21
-35.939989019245
 31
0.0
  0
CIRCLE
  8
ZEICHNUNG
  6
AUSGEZOGEN
 62
           1
  5
74
 10
119.109817504883
 20
-67.768021250407
 30
0.0
 40
5.5
  0
CIRCLE
  8
ZEICHNUNG
  6
AUSGEZOGEN
 62
           1
  5
75
 10
214.609817504883
 20
44.831977223714
 30
0.0
 40
5.0
  0
LINE
  8
BEMAßUNG
  6
STRICHPUNKT
 62
           2
  5
76
 10
208.375335693359
 20
44.831977223714
 30
0.0
 11
219.94352722168
 21
44.831977223714
 31
0.0
  0
LINE
  8
BEMAßUNG
  6
STRICHPUNKT
 62
           2
  5
77
 10
214.609817504883
 20
38.566615437826
 30
0.0
 11
214.609817504883
 21
51.216788625081
 31
0.0
  0
LINE
  8
BEMAßUNG
  6
STRICHPUNKT
 62
           2
  5
78
 10
191.609817504883
 20
10.731978749593
 30
0.0
 11
191.609817504883
 21
80.731978749593
 31
0.0
  0
ARC
  8
UNSICHTBARE
  6
VERDECKT
 62
           2
  5
79
 10
255.909820556641
 20
44.831977223714
 30
0.0
 40
5.0
 50
129.05026353676
 51
230.94973646324
  0
LINE
  8
ZEICHNUNG
  6
AUSGEZOGEN
 62
           1
  5
7A
 10
217.759811401367
 20
48.714957570394
 30
0.0
 11
217.759811401367
 21
51.781974171956
 31
0.0
  0
LINE
  8
ZEICHNUNG
  6
AUSGEZOGEN
 62
           1
  5
7B
 10
217.759811401367
 20
37.881976460775
 30
0.0
 11
217.759811401367
 21
40.948996877034
 31
0.0
  0
LINE
  8
UNSICHTBARE
  6
VERDECKT
 62
           2
  5
7C
 10
252.759811401367
 20
48.714942311605
 30
0.0
 11
252.759811401367
 21
51.781974171956
 31
0.0
  0
LINE
  8
UNSICHTBARE
  6
VERDECKT
 62
           2
  5
7D
 10
252.759811401367
 20
37.881976460775
 30
0.0
 11
252.759811401367
 21
40.949012135824
 31
0.0
  0
LINE
  8
UNSICHTBARE
  6
VERDECKT
 62
           2
  5
7E
 10
245.259811401367
 20
52.781974171956
 30
0.0
 11
251.759811401367
 21
52.781974171956
 31
0.0
  0
LINE
  8
UNSICHTBARE
  6
VERDECKT
 62
           2
  5
7F
 10
218.759811401367
 20
52.781974171956
 30
0.0
 11
225.259811401367
 21
52.781974171956
 31
0.0
  0
LINE
  8
ZEICHNUNG
  6
AUSGEZOGEN
 62
           1
  5
80
 10
219.020321055958
 20
36.881976460775
 30
0.0
 11
218.759811401367
 21
36.881976460775
 31
0.0
  0
LINE
  8
UNSICHTBARE
  6
VERDECKT
 62
           2
  5
81
 10
251.759811401367
 20
36.881976460775
 30
0.0
 11
219.020321055958
 21
36.881976460775
 31
0.0
  0
LINE
  8
UNSICHTBARE
  6
VERDECKT
 62
           2
  5
82
 10
252.759811401367
 20
37.881976460775
 30
0.0
 11
251.759811401367
 21
36.881976460775
 31
0.0
  0
LINE
  8
UNSICHTBARE
  6
VERDECKT
 62
           2
  5
83
 10
252.759811401367
 20
51.781974171956
 30
0.0
 11
251.759811401367
 21
52.781974171956
 31
0.0
  0
LINE
  8
ZEICHNUNG
  6
AUSGEZOGEN
 62
           1
  5
84
 10
218.297729747057
 20
52.319892517646
 30
0.0
 11
217.759811401367
 21
51.781974171956
 31
0.0
  0
LINE
  8
UNSICHTBARE
  6
VERDECKT
 62
           2
  5
85
 10
218.759811401367
 20
52.781974171956
 30
0.0
 11
218.297729747057
 21
52.319892517646
 31
0.0
  0
LINE
  8
ZEICHNUNG
  6
AUSGEZOGEN
 62
           1
  5
86
 10
217.759811401367
 20
37.881976460775
 30
0.0
 11
218.759811401367
 21
36.881976460775
 31
0.0
  0
LINE
  8
UNSICHTBARE
  6
VERDECKT
 62
           2
  5
87
 10
245.259811401367
 20
52.781974171956
 30
0.0
 11
245.259811401367
 21
54.281974171956
 31
0.0
  0
LINE
  8
UNSICHTBARE
  6
VERDECKT
 62
           2
  5
88
 10
225.259811401367
 20
52.781974171956
 30
0.0
 11
225.259811401367
 21
54.281974171956
 31
0.0
  0
ARC
  8
ZEICHNUNG
  6
AUSGEZOGEN
 62
           1
  5
89
 10
214.609817504883
 20
44.831977223714
 30
0.0
 40
5.0
 50
309.050036546655
 51
50.949963453345
  0
LINE
  8
UNSICHTBARE
  6
VERDECKT
 62
           2
  5
8A
 10
225.259811401367
 20
54.281974171956
 30
0.0
 11
245.259811401367
 21
54.281974171956
 31
0.0
  0
ARC
  8
UNSICHTBARE
  6
VERDECKT
 62
           2
  5
8B
 10
127.309814453125
 20
44.831977223714
 30
0.0
 40
5.0
 50
309.050261942897
 51
50.949738057102
  0
LINE
  8
ZEICHNUNG
  6
AUSGEZOGEN
 62
           1
  5
8C
 10
165.459823608398
 20
48.714957570394
 30
0.0
 11
165.459823608398
 21
51.781974171956
 31
0.0
  0
LINE
  8
ZEICHNUNG
  6
AUSGEZOGEN
 62
           1
  5
8D
 10
165.459823608398
 20
37.881976460775
 30
0.0
 11
165.459823608398
 21
40.948996877034
 31
0.0
  0
LINE
  8
UNSICHTBARE
  6
VERDECKT
 62
           2
  5
8E
 10
130.459823608398
 20
48.714942311605
 30
0.0
 11
130.459823608398
 21
51.781974171956
 31
0.0
  0
LINE
  8
UNSICHTBARE
  6
VERDECKT
 62
           2
  5
8F
 10
130.459823608398
 20
37.881976460775
 30
0.0
 11
130.459823608398
 21
40.949012135824
 31
0.0
  0
LINE
  8
UNSICHTBARE
  6
VERDECKT
 62
           2
  5
90
 10
137.959823608398
 20
52.781974171956
 30
0.0
 11
131.459823608398
 21
52.781974171956
 31
0.0
  0
LINE
  8
UNSICHTBARE
  6
VERDECKT
 62
           2
  5
91
 10
164.459823608398
 20
52.781974171956
 30
0.0
 11
157.959823608398
 21
52.781974171956
 31
0.0
  0
LINE
  8
ZEICHNUNG
  6
AUSGEZOGEN
 62
           1
  5
92
 10
164.1993151052
 20
36.881976460775
 30
0.0
 11
164.459823608398
 21
36.881976460775
 31
0.0
  0
LINE
  8
UNSICHTBARE
  6
VERDECKT
 62
           2
  5
93
 10
131.459823608398
 20
36.881976460775
 30
0.0
 11
164.1993151052
 21
36.881976460775
 31
0.0
  0
LINE
  8
UNSICHTBARE
  6
VERDECKT
 62
           2
  5
94
 10
130.459823608398
 20
37.881976460775
 30
0.0
 11
131.459823608398
 21
36.881976460775
 31
0.0
  0
LINE
  8
UNSICHTBARE
  6
VERDECKT
 62
           2
  5
95
 10
130.459823608398
 20
51.781974171956
 30
0.0
 11
131.459823608398
 21
52.781974171956
 31
0.0
  0
LINE
  8
ZEICHNUNG
  6
AUSGEZOGEN
 62
           1
  5
96
 10
164.921910847847
 20
52.319886932508
 30
0.0
 11
165.459823608398
 21
51.781974171956
 31
0.0
  0
LINE
  8
UNSICHTBARE
  6
VERDECKT
 62
           2
  5
97
 10
164.459823608398
 20
52.781974171956
 30
0.0
 11
164.921910847847
 21
52.319886932508
 31
0.0
  0
LINE
  8
ZEICHNUNG
  6
AUSGEZOGEN
 62
           1
  5
98
 10
165.459823608398
 20
37.881976460775
 30
0.0
 11
164.459823608398
 21
36.881976460775
 31
0.0
  0
LINE
  8
UNSICHTBARE
  6
VERDECKT
 62
           2
  5
99
 10
137.959823608398
 20
52.781974171956
 30
0.0
 11
137.959823608398
 21
54.281974171956
 31
0.0
  0
LINE
  8
UNSICHTBARE
  6
VERDECKT
 62
           2
  5
9A
 10
157.959823608398
 20
52.781974171956
 30
0.0
 11
157.959823608398
 21
54.281974171956
 31
0.0
  0
ARC
  8
ZEICHNUNG
  6
AUSGEZOGEN
 62
           1
  5
9B
 10
168.609817504883
 20
44.831977223714
 30
0.0
 40
5.0
 50
129.050031310328
 51
230.949968689671
  0
LINE
  8
UNSICHTBARE
  6
VERDECKT
 62
           2
  5
9C
 10
157.959823608398
 20
54.281974171956
 30
0.0
 11
137.959823608398
 21
54.281974171956
 31
0.0
  0
LINE
  8
ZEICHNUNG
  6
AUSGEZOGEN
 62
           1
  5
9D
 10
162.809814453125
 20
51.100466643928
 30
0.0
 11
162.809814453125
 21
37.684202098333
 31
0.0
  0
LINE
  8
ZEICHNUNG
  6
AUSGEZOGEN
 62
           1
  5
9E
 10
197.109817504883
 20
36.131980275472
 30
0.0
 11
197.109817504883
 21
47.731978749593
 31
0.0
  0
LINE
  8
ZEICHNUNG
  6
AUSGEZOGEN
 62
           1
  5
9F
 10
197.109817504883
 20
20.731978749593
 30
0.0
 11
197.109817504883
 21
27.131980275472
 31
0.0
  0
LINE
  8
ZEICHNUNG
  6
AUSGEZOGEN
 62
           1
  5
A0
 10
197.109817504883
 20
20.731978749593
 30
0.0
 11
210.609817504883
 21
20.731978749593
 31
0.0
  0
LINE
  8
ZEICHNUNG
  6
AUSGEZOGEN
 62
           1
  5
A1
 10
197.109817504883
 20
27.131980275472
 30
0.0
 11
200.859817504883
 21
27.131980275472
 31
0.0
  0
LINE
  8
ZEICHNUNG
  6
AUSGEZOGEN
 62
           1
  5
A2
 10
217.109817504883
 20
49.748465871175
 30
0.0
 11
217.109817504883
 21
52.331977223714
 31
0.0
  0
LINE
  8
ZEICHNUNG
  6
AUSGEZOGEN
 62
           1
  5
A3
 10
217.109817504883
 20
36.952700948079
 30
0.0
 11
217.109817504883
 21
39.915488576253
 31
0.0
  0
LINE
  8
ZEICHNUNG
  6
AUSGEZOGEN
 62
           1
  5
A4
 10
217.109817504883
 20
52.331977223714
 30
0.0
 11
212.952896118164
 21
54.731978749593
 31
0.0
  0
LINE
  8
ZEICHNUNG
  6
AUSGEZOGEN
 62
           1
  5
A5
 10
200.859817504883
 20
27.131980275472
 30
0.0
 11
200.859817504883
 21
36.131980275472
 31
0.0
  0
LINE
  8
ZEICHNUNG
  6
AUSGEZOGEN
 62
           1
  5
A6
 10
200.859817504883
 20
47.731978749593
 30
0.0
 11
200.859817504883
 21
54.731978749593
 31
0.0
  0
LINE
  8
ZEICHNUNG
  6
AUSGEZOGEN
 62
           1
  5
A7
 10
212.109817504883
 20
39.831977223714
 30
0.0
 11
214.609817504883
 21
39.831977223714
 31
0.0
  0
LINE
  8
ZEICHNUNG
  6
AUSGEZOGEN
 62
           1
  5
A8
 10
212.109817504883
 20
49.831977223714
 30
0.0
 11
214.609817504883
 21
49.831977223714
 31
0.0
  0
LINE
  8
ZEICHNUNG
  6
AUSGEZOGEN
 62
           1
  5
A9
 10
209.609817504883
 20
42.331977223714
 30
0.0
 11
209.609817504883
 21
47.331977223714
 31
0.0
  0
ARC
  8
ZEICHNUNG
  6
AUSGEZOGEN
 62
           1
  5
AA
 10
212.109817504883
 20
47.331977223714
 30
0.0
 40
2.5
 50
90.000002504478
 51
180.000008651422
  0
ARC
  8
ZEICHNUNG
  6
AUSGEZOGEN
 62
           1
  5
AB
 10
212.109817504883
 20
42.331977223714
 30
0.0
 40
2.5
 50
180.000008651421
 51
269.999997495521
  0
LINE
  8
ZEICHNUNG
  6
AUSGEZOGEN
 62
           1
  5
AC
 10
210.609817504883
 20
33.19992548334
 30
0.0
 11
217.109817504883
 21
36.952700948079
 31
0.0
  0
LINE
  8
ZEICHNUNG
  6
AUSGEZOGEN
 62
           1
  5
AD
 10
217.109817504883
 20
49.748465871175
 30
0.0
 11
216.309814453125
 21
49.534102773031
 31
0.0
  0
LINE
  8
ZEICHNUNG
  6
AUSGEZOGEN
 62
           1
  5
AE
 10
217.109817504883
 20
39.915488576253
 30
0.0
 11
216.309814453125
 21
40.129851674398
 31
0.0
  0
ARC
  8
ZEICHNUNG
  6
AUSGEZOGEN
 62
           1
  5
AF
 10
214.609817504883
 20
44.831977223714
 30
0.0
 40
5.0
 50
70.123072849852
 51
89.999913712019
  0
ARC
  8
ZEICHNUNG
  6
AUSGEZOGEN
 62
           1
  5
B0
 10
214.609817504883
 20
44.831977223714
 30
0.0
 40
5.0
 50
270.00008628798
 51
289.876927150147
  0
LINE
  8
ZEICHNUNG
  6
AUSGEZOGEN
 62
           1
  5
B1
 10
186.109817504883
 20
36.131980275472
 30
0.0
 11
186.109817504883
 21
47.731978749593
 31
0.0
  0
LINE
  8
ZEICHNUNG
  6
AUSGEZOGEN
 62
           1
  5
B2
 10
186.109817504883
 20
20.731978749593
 30
0.0
 11
186.109817504883
 21
27.131980275472
 31
0.0
  0
LINE
  8
ZEICHNUNG
  6
AUSGEZOGEN
 62
           1
  5
B3
 10
186.109817504883
 20
20.731978749593
 30
0.0
 11
172.609817504883
 21
20.731978749593
 31
0.0
  0
LINE
  8
ZEICHNUNG
  6
AUSGEZOGEN
 62
           1
  5
B4
 10
186.109817504883
 20
27.131980275472
 30
0.0
 11
182.359817504883
 21
27.131980275472
 31
0.0
  0
LINE
  8
ZEICHNUNG
  6
AUSGEZOGEN
 62
           1
  5
B5
 10
212.952896118164
 20
54.731978749593
 30
0.0
 11
170.266738891602
 21
54.731978749593
 31
0.0
  0
LINE
  8
ZEICHNUNG
  6
AUSGEZOGEN
 62
           1
  5
B6
 10
166.109817504883
 20
49.748465871175
 30
0.0
 11
166.109817504883
 21
52.331977223714
 31
0.0
  0
LINE
  8
ZEICHNUNG
  6
AUSGEZOGEN
 62
           1
  5
B7
 10
166.109817504883
 20
36.952700948079
 30
0.0
 11
166.109817504883
 21
39.915488576253
 31
0.0
  0
LINE
  8
ZEICHNUNG
  6
AUSGEZOGEN
 62
           1
  5
B8
 10
166.109817504883
 20
52.331977223714
 30
0.0
 11
170.266738891602
 21
54.731978749593
 31
0.0
  0
LINE
  8
ZEICHNUNG
  6
AUSGEZOGEN
 62
           1
  5
B9
 10
200.859817504883
 20
36.131980275472
 30
0.0
 11
182.359817504883
 21
36.131980275472
 31
0.0
  0
LINE
  8
ZEICHNUNG
  6
AUSGEZOGEN
 62
           1
  5
BA
 10
182.359817504883
 20
27.131980275472
 30
0.0
 11
182.359817504883
 21
36.131980275472
 31
0.0
  0
LINE
  8
ZEICHNUNG
  6
AUSGEZOGEN
 62
           1
  5
BB
 10
182.359817504883
 20
47.731978749593
 30
0.0
 11
182.359817504883
 21
54.731978749593
 31
0.0
  0
LINE
  8
ZEICHNUNG
  6
AUSGEZOGEN
 62
           1
  5
BC
 10
200.859817504883
 20
47.731978749593
 30
0.0
 11
182.359817504883
 21
47.731978749593
 31
0.0
  0
LINE
  8
ZEICHNUNG
  6
AUSGEZOGEN
 62
           1
  5
BD
 10
172.609817504883
 20
33.19992548334
 30
0.0
 11
166.109817504883
 21
36.952700948079
 31
0.0
  0
CIRCLE
  8
ZEICHNUNG
  6
AUSGEZOGEN
 62
           1
  5
BE
 10
168.609817504883
 20
44.831977223714
 30
0.0
 40
5.0
  0
LINE
  8
BEMAßUNG
  6
STRICHPUNKT
 62
           2
  5
BF
 10
174.844299316406
 20
44.831977223714
 30
0.0
 11
163.276107788086
 21
44.831977223714
 31
0.0
  0
LINE
  8
BEMAßUNG
  6
STRICHPUNKT
 62
           2
  5
C0
 10
168.609817504883
 20
38.566615437826
 30
0.0
 11
168.609817504883
 21
51.216788625081
 31
0.0
  0
LINE
  8
ZEICHNUNG
  6
AUSGEZOGEN
 62
           1
  5
C1
 10
171.109817504883
 20
39.831977223714
 30
0.0
 11
168.609817504883
 21
39.831977223714
 31
0.0
  0
LINE
  8
ZEICHNUNG
  6
AUSGEZOGEN
 62
           1
  5
C2
 10
171.109817504883
 20
49.831977223714
 30
0.0
 11
168.609817504883
 21
49.831977223714
 31
0.0
  0
LINE
  8
ZEICHNUNG
  6
AUSGEZOGEN
 62
           1
  5
C3
 10
173.609817504883
 20
42.331977223714
 30
0.0
 11
173.609817504883
 21
47.331977223714
 31
0.0
  0
ARC
  8
ZEICHNUNG
  6
AUSGEZOGEN
 62
           1
  5
C4
 10
171.109817504883
 20
47.331977223714
 30
0.0
 40
2.5
 50
359.999991348577
 51
89.999997495521
  0
ARC
  8
ZEICHNUNG
  6
AUSGEZOGEN
 62
           1
  5
C5
 10
171.109817504883
 20
42.331977223714
 30
0.0
 40
2.5
 50
270.000002504478
 51
359.999991348577
  0
LINE
  8
ZEICHNUNG
  6
AUSGEZOGEN
 62
           1
  5
C6
 10
166.109817504883
 20
49.748465871175
 30
0.0
 11
166.909820556641
 21
49.534102773031
 31
0.0
  0
LINE
  8
ZEICHNUNG
  6
AUSGEZOGEN
 62
           1
  5
C7
 10
166.109817504883
 20
39.915488576253
 30
0.0
 11
166.909820556641
 21
40.129851674398
 31
0.0
  0
ARC
  8
ZEICHNUNG
  6
AUSGEZOGEN
 62
           1
  5
C8
 10
168.609817504883
 20
44.831977223714
 30
0.0
 40
5.0
 50
90.000086287981
 51
109.876927150148
  0
ARC
  8
ZEICHNUNG
  6
AUSGEZOGEN
 62
           1
  5
C9
 10
168.609817504883
 20
44.831977223714
 30
0.0
 40
5.0
 50
250.123072849851
 51
269.999913712019
  0
LINE
  8
ZEICHNUNG
  6
AUSGEZOGEN
 62
           1
  5
CA
 10
210.609817504883
 20
20.731978749593
 30
0.0
 11
210.609817504883
 21
33.19992548334
 31
0.0
  0
LINE
  8
ZEICHNUNG
  6
AUSGEZOGEN
 62
           1
  5
CB
 10
172.609817504883
 20
20.731978749593
 30
0.0
 11
172.609817504883
 21
33.19992548334
 31
0.0
  0
LINE
  8
BEMAßUNG
  6
STRICHPUNKT
 62
           2
  5
CC
 10
235.109817504883
 20
25.0
 30
0.0
 11
235.109817504883
 21
79.132108686962
 31
0.0
  0
LINE
  8
BEMAßUNG
  6
STRICHPUNKT
 62
           2
  5
CD
 10
148.109817504883
 20
25.0
 30
0.0
 11
148.109817504883
 21
78.637017287461
 31
0.0
  0
LINE
  8
ZEICHNUNG
  6
AUSGEZOGEN
 62
           1
  5
CE
 10
62.109809875488
 20
-46.424942637126
 30
0.0
 11
262.676547561019
 21
-46.424942637126
 31
0.0
  0
LINE
  8
ZEICHNUNG
  6
AUSGEZOGEN
 62
           1
  5
CF
 10
-253.890182495117
 20
-46.424942637126
 30
0.0
 11
-73.890182495117
 21
-46.424942637126
 31
0.0
  0
LINE
  8
ZEICHNUNG
  6
AUSGEZOGEN
 62
           1
  5
D0
 10
62.109809875488
 20
-42.268021250407
 30
0.0
 11
263.040231057526
 21
-42.268021250407
 31
0.0
  0
LINE
  8
ZEICHNUNG
  6
AUSGEZOGEN
 62
           1
  5
D1
 10
-253.890182495117
 20
-42.268021250407
 30
0.0
 11
-73.890182495117
 21
-42.268021250407
 31
0.0
  0
LINE
  8
ZEICHNUNG
  6
AUSGEZOGEN
 62
           1
  5
D2
 10
62.109809875488
 20
-89.111099863688
 30
0.0
 11
262.676547561019
 21
-89.111099863688
 31
0.0
  0
LINE
  8
ZEICHNUNG
  6
AUSGEZOGEN
 62
           1
  5
D3
 10
-253.890182495117
 20
-89.111099863688
 30
0.0
 11
-73.890182495117
 21
-89.111099863688
 31
0.0
  0
LINE
  8
ZEICHNUNG
  6
AUSGEZOGEN
 62
           1
  5
D4
 10
62.109809875488
 20
-93.268021250407
 30
0.0
 11
263.040231057526
 21
-93.268021250407
 31
0.0
  0
LINE
  8
ZEICHNUNG
  6
AUSGEZOGEN
 62
           1
  5
D5
 10
-253.890182495117
 20
-93.268021250407
 30
0.0
 11
-73.890182495117
 21
-93.268021250407
 31
0.0
  0
LINE
  8
BEMAßUNG
  6
STRICHPUNKT
 62
           2
  5
D6
 10
29.109817504883
 20
28.281974171956
 30
0.0
 11
29.109817504883
 21
80.0
 31
0.0
  0
LINE
  8
BEMAßUNG
  6
STRICHPUNKT
 62
           2
  5
D7
 10
-5.890182495117
 20
25.0
 30
0.0
 11
-5.890182495117
 21
80.0
 31
0.0
  0
LINE
  8
BEMAßUNG
  6
STRICHPUNKT
 62
           2
  5
D8
 10
-40.890182495117
 20
28.281974171956
 30
0.0
 11
-40.890182495117
 21
80.0
 31
0.0
  0
LINE
  8
ZEICHNUNG
  6
AUSGEZOGEN
 62
           1
  5
D9
 10
65.109809875488
 20
52.331977223714
 30
0.0
 11
83.638333961853
 21
52.331977223714
 31
0.0
  0
LINE
  8
ZEICHNUNG
  6
AUSGEZOGEN
 62
           1
  5
DA
 10
-253.890182495117
 20
52.331977223714
 30
0.0
 11
-76.890182495117
 21
52.331977223714
 31
0.0
  0
LINE
  8
ZEICHNUNG
  6
AUSGEZOGEN
 62
           1
  5
DB
 10
62.109809875488
 20
36.952700948079
 30
0.0
 11
82.292821634501
 21
36.952700948079
 31
0.0
  0
LINE
  8
ZEICHNUNG
  6
AUSGEZOGEN
 62
           1
  5
DC
 10
-253.890182495117
 20
36.952700948079
 30
0.0
 11
-73.890182495117
 21
36.952700948079
 31
0.0
  0
LINE
  8
ZEICHNUNG
  6
AUSGEZOGEN
 62
           1
  5
DD
 10
62.109809875488
 20
33.19992548334
 30
0.0
 11
81.964496324578
 21
33.19992548334
 31
0.0
  0
LINE
  8
ZEICHNUNG
  6
AUSGEZOGEN
 62
           1
  5
DE
 10
-253.890182495117
 20
33.19992548334
 30
0.0
 11
-73.890182495117
 21
33.19992548334
 31
0.0
  0
LINE
  8
ZEICHNUNG
  6
AUSGEZOGEN
 62
           1
  5
DF
 10
256.609817504883
 20
28.031978749593
 30
0.0
 11
256.609817504883
 21
75.031978749593
 31
0.0
  0
LINE
  8
ZEICHNUNG
  6
AUSGEZOGEN
 62
           1
  5
E0
 10
214.40983581543
 20
28.031978749593
 30
0.0
 11
256.609817504883
 21
28.031978749593
 31
0.0
  0
LINE
  8
ZEICHNUNG
  6
AUSGEZOGEN
 62
           1
  5
E1
 10
213.167236328125
 20
55.281986378988
 30
0.0
 11
220.40983581543
 21
51.100466643997
 31
0.0
  0
LINE
  8
ZEICHNUNG
  6
AUSGEZOGEN
 62
           1
  5
E2
 10
220.40983581543
 20
37.684213053631
 30
0.0
 11
214.40983581543
 21
34.220111989339
 31
0.0
  0
LINE
  8
ZEICHNUNG
  6
AUSGEZOGEN
 62
           1
  5
E3
 10
126.609817504883
 20
28.031978749593
 30
0.0
 11
126.609817504883
 21
75.031978749593
 31
0.0
  0
LINE
  8
ZEICHNUNG
  6
AUSGEZOGEN
 62
           1
  5
E4
 10
256.609817504883
 20
75.031978749593
 30
0.0
 11
126.609817504883
 21
75.031978749593
 31
0.0
  0
LINE
  8
ZEICHNUNG
  6
AUSGEZOGEN
 62
           1
  5
E5
 10
168.809814453125
 20
28.031978749593
 30
0.0
 11
126.609817504883
 21
28.031978749593
 31
0.0
  0
LINE
  8
ZEICHNUNG
  6
AUSGEZOGEN
 62
           1
  5
E6
 10
213.167236328125
 20
55.281986378988
 30
0.0
 11
170.052398681641
 21
55.281986378988
 31
0.0
  0
LINE
  8
ZEICHNUNG
  6
AUSGEZOGEN
 62
           1
  5
E7
 10
214.40983581543
 20
28.031978749593
 30
0.0
 11
214.40983581543
 21
34.220111989339
 31
0.0
  0
LINE
  8
ZEICHNUNG
  6
AUSGEZOGEN
 62
           1
  5
E8
 10
170.05241394043
 20
55.281986378988
 30
0.0
 11
162.809814453125
 21
51.100466643928
 31
0.0
  0
LINE
  8
ZEICHNUNG
  6
AUSGEZOGEN
 62
           1
  5
E9
 10
168.809814453125
 20
34.220113169578
 30
0.0
 11
162.809814453125
 21
37.684202098333
 31
0.0
  0
LINE
  8
ZEICHNUNG
  6
AUSGEZOGEN
 62
           1
  5
EA
 10
168.809829711914
 20
28.031978749593
 30
0.0
 11
168.809829711914
 21
34.220104359945
 31
0.0
  0
LINE
  8
UNSICHTBARE
  6
VERDECKT
 62
           2
  5
EB
 10
222.259811401367
 20
63.031978749593
 30
0.0
 11
248.259811401367
 21
63.031978749593
 31
0.0
  0
LINE
  8
UNSICHTBARE
  6
VERDECKT
 62
           2
  5
EC
 10
222.259811401367
 20
63.031978749593
 30
0.0
 11
222.259811401367
 21
75.031978749593
 31
0.0
  0
LINE
  8
UNSICHTBARE
  6
VERDECKT
 62
           2
  5
ED
 10
248.259811401367
 20
63.031978749593
 30
0.0
 11
248.259811401367
 21
75.031978749593
 31
0.0
  0
LINE
  8
ZEICHNUNG
  6
AUSGEZOGEN
 62
           1
  5
EE
 10
220.40983581543
 20
37.684213053631
 30
0.0
 11
220.40983581543
 21
51.100466643997
 31
0.0
  0
LINE
  8
ZEICHNUNG
  6
AUSGEZOGEN
 62
           1
  5
EF
 10
-73.890182495117
 20
75.031978749593
 30
0.0
 11
62.109809875488
 21
75.031978749593
 31
0.0
  0
LINE
  8
ZEICHNUNG
  6
AUSGEZOGEN
 62
           1
  5
F0
 10
-73.890182495117
 20
28.031978749593
 30
0.0
 11
62.109809875488
 21
28.031978749593
 31
0.0
  0
LINE
  8
ZEICHNUNG
  6
AUSGEZOGEN
 62
           1
  5
F1
 10
-73.890182495117
 20
28.031978749593
 30
0.0
 11
-73.890182495117
 21
75.031978749593
 31
0.0
  0
LINE
  8
ZEICHNUNG
  6
AUSGEZOGEN
 62
           1
  5
F2
 10
62.109809875488
 20
28.031978749593
 30
0.0
 11
62.109809875488
 21
75.031978749593
 31
0.0
  0
LINE
  8
UNSICHTBARE
  6
VERDECKT
 62
           2
  5
F3
 10
24.109817504883
 20
55.281986378988
 30
0.0
 11
24.109817504883
 21
75.031978749593
 31
0.0
  0
LINE
  8
UNSICHTBARE
  6
VERDECKT
 62
           2
  5
F4
 10
34.109817504883
 20
55.281986378988
 30
0.0
 11
34.109817504883
 21
75.031978749593
 31
0.0
  0
LINE
  8
UNSICHTBARE
  6
VERDECKT
 62
           2
  5
F5
 10
25.109817504883
 20
55.281986378988
 30
0.0
 11
25.109817504883
 21
75.031978749593
 31
0.0
  0
LINE
  8
UNSICHTBARE
  6
VERDECKT
 62
           2
  5
F6
 10
33.109817504883
 20
55.281986378988
 30
0.0
 11
33.109817504883
 21
75.031978749593
 31
0.0
  0
LINE
  8
UNSICHTBARE
  6
VERDECKT
 62
           2
  5
F7
 10
186.609817504883
 20
55.281986378988
 30
0.0
 11
186.609817504883
 21
75.031978749593
 31
0.0
  0
LINE
  8
UNSICHTBARE
  6
VERDECKT
 62
           2
  5
F8
 10
196.609817504883
 20
55.281986378988
 30
0.0
 11
196.609817504883
 21
75.031978749593
 31
0.0
  0
LINE
  8
UNSICHTBARE
  6
VERDECKT
 62
           2
  5
F9
 10
187.609817504883
 20
55.281986378988
 30
0.0
 11
187.609817504883
 21
75.031978749593
 31
0.0
  0
LINE
  8
UNSICHTBARE
  6
VERDECKT
 62
           2
  5
FA
 10
195.609817504883
 20
55.281986378988
 30
0.0
 11
195.609817504883
 21
75.031978749593
 31
0.0
  0
LINE
  8
UNSICHTBARE
  6
VERDECKT
 62
           2
  5
FB
 10
-10.890182495117
 20
54.031978749593
 30
0.0
 11
-10.890182495117
 21
75.031978749593
 31
0.0
  0
LINE
  8
UNSICHTBARE
  6
VERDECKT
 62
           2
  5
FC
 10
-0.890182495117
 20
54.031978749593
 30
0.0
 11
-0.890182495117
 21
75.031978749593
 31
0.0
  0
LINE
  8
UNSICHTBARE
  6
VERDECKT
 62
           2
  5
FD
 10
-9.890182495117
 20
54.031978749593
 30
0.0
 11
-9.890182495117
 21
75.031978749593
 31
0.0
  0
LINE
  8
UNSICHTBARE
  6
VERDECKT
 62
           2
  5
FE
 10
-1.890182495117
 20
54.031978749593
 30
0.0
 11
-1.890182495117
 21
75.031978749593
 31
0.0
  0
LINE
  8
UNSICHTBARE
  6
VERDECKT
 62
           2
  5
FF
 10
-45.890182495117
 20
55.281986378988
 30
0.0
 11
-45.890182495117
 21
75.031978749593
 31
0.0
  0
LINE
  8
UNSICHTBARE
  6
VERDECKT
 62
           2
  5
100
 10
-35.890182495117
 20
55.281986378988
 30
0.0
 11
-35.890182495117
 21
75.031978749593
 31
0.0
  0
LINE
  8
UNSICHTBARE
  6
VERDECKT
 62
           2
  5
101
 10
-44.890182495117
 20
55.281986378988
 30
0.0
 11
-44.890182495117
 21
75.031978749593
 31
0.0
  0
LINE
  8
UNSICHTBARE
  6
VERDECKT
 62
           2
  5
102
 10
-36.890182495117
 20
55.281986378988
 30
0.0
 11
-36.890182495117
 21
75.031978749593
 31
0.0
  0
LINE
  8
BEMAßUNG
  6
STRICHPUNKT
 62
           2
  5
103
 10
-83.0
 20
52.031978749593
 30
0.0
 11
-63.0
 21
52.031978749593
 31
0.0
  0
LINE
  8
ZEICHNUNG
  6
AUSGEZOGEN
 62
           1
  5
104
 10
-76.890182495117
 20
57.031978749593
 30
0.0
 11
-76.890182495117
 21
47.031978749593
 31
0.0
  0
LINE
  8
ZEICHNUNG
  6
AUSGEZOGEN
 62
           1
  5
105
 10
-76.890182495117
 20
57.031978749593
 30
0.0
 11
-73.890182495117
 21
57.031978749593
 31
0.0
  0
LINE
  8
ZEICHNUNG
  6
AUSGEZOGEN
 62
           1
  5
106
 10
-76.890182495117
 20
47.031978749593
 30
0.0
 11
-73.890182495117
 21
47.031978749593
 31
0.0
  0
LINE
  8
BEMAßUNG
  6
STRICHPUNKT
 62
           2
  5
107
 10
71.219627380371
 20
52.031978749593
 30
0.0
 11
51.219627380371
 21
52.031978749593
 31
0.0
  0
LINE
  8
ZEICHNUNG
  6
AUSGEZOGEN
 62
           1
  5
108
 10
65.109809875488
 20
57.031978749593
 30
0.0
 11
65.109809875488
 21
47.031978749593
 31
0.0
  0
LINE
  8
ZEICHNUNG
  6
AUSGEZOGEN
 62
           1
  5
109
 10
65.109809875488
 20
57.031978749593
 30
0.0
 11
62.109809875488
 21
57.031978749593
 31
0.0
  0
LINE
  8
ZEICHNUNG
  6
AUSGEZOGEN
 62
           1
  5
10A
 10
65.109809875488
 20
47.031978749593
 30
0.0
 11
62.109809875488
 21
47.031978749593
 31
0.0
  0
CIRCLE
  8
ZEICHNUNG
  6
AUSGEZOGEN
 62
           1
  5
10B
 10
240.609817504883
 20
52.331981801351
 30
0.0
 40
4.0
  0
LINE
  8
BEMAßUNG
  6
STRICHPUNKT
 62
           2
  5
10C
 10
240.609817504883
 20
47.006899311814
 30
0.0
 11
240.609817504883
 21
57.114458035123
 31
0.0
  0
LINE
  8
BEMAßUNG
  6
STRICHPUNKT
 62
           2
  5
10D
 10
235.327388351044
 20
52.031978749593
 30
0.0
 11
245.669171583131
 21
52.031978749593
 31
0.0
  0
CIRCLE
  8
ZEICHNUNG
  6
AUSGEZOGEN
 62
           1
  5
10E
 10
240.609817504883
 20
52.031978749593
 30
0.0
 40
1.0
  0
CIRCLE
  8
ZEICHNUNG
  6
AUSGEZOGEN
 62
           1
  5
10F
 10
142.609817504883
 20
52.331981801351
 30
0.0
 40
4.0
  0
LINE
  8
BEMAßUNG
  6
STRICHPUNKT
 62
           2
  5
110
 10
142.609817504883
 20
47.006899311814
 30
0.0
 11
142.609817504883
 21
57.114458035123
 31
0.0
  0
LINE
  8
BEMAßUNG
  6
STRICHPUNKT
 62
           2
  5
111
 10
137.327388351044
 20
52.031978749593
 30
0.0
 11
147.669171583131
 21
52.031978749593
 31
0.0
  0
CIRCLE
  8
ZEICHNUNG
  6
AUSGEZOGEN
 62
           1
  5
112
 10
142.609817504883
 20
52.031978749593
 30
0.0
 40
1.0
  0
LINE
  8
UNSICHTBARE
  6
VERDECKT
 62
           2
  5
113
 10
143.109817504883
 20
54.031978749593
 30
0.0
 11
143.109817504883
 21
75.031978749593
 31
0.0
  0
LINE
  8
UNSICHTBARE
  6
VERDECKT
 62
           2
  5
114
 10
153.109817504883
 20
54.031978749593
 30
0.0
 11
153.109817504883
 21
75.031978749593
 31
0.0
  0
LINE
  8
UNSICHTBARE
  6
VERDECKT
 62
           2
  5
115
 10
144.109817504883
 20
54.031978749593
 30
0.0
 11
144.109817504883
 21
75.031978749593
 31
0.0
  0
LINE
  8
UNSICHTBARE
  6
VERDECKT
 62
           2
  5
116
 10
152.109817504883
 20
54.031978749593
 30
0.0
 11
152.109817504883
 21
75.031978749593
 31
0.0
  0
LINE
  8
UNSICHTBARE
  6
VERDECKT
 62
           2
  5
117
 10
230.109817504883
 20
54.031978749593
 30
0.0
 11
230.109817504883
 21
75.031978749593
 31
0.0
  0
LINE
  8
UNSICHTBARE
  6
VERDECKT
 62
           2
  5
118
 10
240.109817504883
 20
54.031978749593
 30
0.0
 11
240.109817504883
 21
75.031978749593
 31
0.0
  0
LINE
  8
UNSICHTBARE
  6
VERDECKT
 62
           2
  5
119
 10
231.109817504883
 20
54.031978749593
 30
0.0
 11
231.109817504883
 21
75.031978749593
 31
0.0
  0
LINE
  8
UNSICHTBARE
  6
VERDECKT
 62
           2
  5
11A
 10
239.109817504883
 20
54.031978749593
 30
0.0
 11
239.109817504883
 21
75.031978749593
 31
0.0
  0
LINE
  8
BEMAßUNG
  6
STRICHPUNKT
 62
           2
  5
11B
 10
-130.890182495117
 20
15.0
 30
0.0
 11
-130.890182495117
 21
60.0
 31
0.0
  0
LINE
  8
BEMAßUNG
  6
STRICHPUNKT
 62
           2
  5
11C
 10
-130.890182495117
 20
-80.0
 30
0.0
 11
-130.890182495117
 21
-55.0
 31
0.0
  0
INSERT
  8
MITTELLINIEN
  6
AUSGEZOGEN
 62
           2
  5
11D
  2
*X3
 10
0.0
 20
0.0
 30
0.0
  0
CIRCLE
  8
ZEICHNUNG
  6
AUSGEZOGEN
 62
           1
  5
11E
 10
-40.890182495117
 20
-111.268021250407
 30
0.0
 40
10.0
  0
CIRCLE
  8
ZEICHNUNG
  6
AUSGEZOGEN
 62
           1
  5
11F
 10
29.109817504883
 20
-111.268021250407
 30
0.0
 40
10.0
  0
LINE
  8
ZEICHNUNG
  6
AUSGEZOGEN
 62
           1
  5
120
 10
65.109809875488
 20
49.831977223714
 30
0.0
 11
83.419612303038
 21
49.831977223714
 31
0.0
  0
LINE
  8
ZEICHNUNG
  6
AUSGEZOGEN
 62
           1
  5
121
 10
-253.890182495117
 20
49.831977223714
 30
0.0
 11
-76.890182495117
 21
49.831977223714
 31
0.0
  0
LINE
  8
ZEICHNUNG
  6
AUSGEZOGEN
 62
           1
  5
122
 10
62.109809875488
 20
39.831977223714
 30
0.0
 11
82.544725667779
 21
39.831977223714
 31
0.0
  0
LINE
  8
ZEICHNUNG
  6
AUSGEZOGEN
 62
           1
  5
123
 10
-253.890182495117
 20
39.831977223714
 30
0.0
 11
-73.890182495117
 21
39.831977223714
 31
0.0
  0
ENDSEC
  0
EOF
