  0
SECTION
  2
HEADER
  9
$ACADVER
  1
AC1009
  9
$INSBASE
 10
0.0
 20
0.0
 30
0.0
  9
$EXTMIN
 10
365.0
 20
-375.768036509196
 30
0.0
  9
$EXTMAX
 10
731.609817504883
 20
-205.0
 30
0.0
  9
$LIMMIN
 10
365.0
 20
-375.768036509196
  9
$LIMMAX
 10
731.609817504883
 20
-205.0
  9
$ORTHOMODE
 70
           0
  9
$REGENMODE
 70
           1
  9
$FILLMODE
 70
           1
  9
$QTEXTMODE
 70
           0
  9
$MIRRTEXT
 70
           1
  9
$DRAGMODE
 70
           2
  9
$LTSCALE
 40
5.0
  9
$OSMODE
 70
           0
  9
$ATTMODE
 70
           1
  9
$TEXTSIZE
 40
0.2
  9
$TRACEWID
 40
0.05
  9
$TEXTSTYLE
  7
TXT
  9
$CLAYER
  8
0
  9
$CELTYPE
  6
CONTINUOUS
  9
$CECOLOR
 62
         256
  9
$DIMSCALE
 40
1.0
  9
$DIMASZ
 40
3.5
  9
$DIMEXO
 40
0.0625
  9
$DIMDLI
 40
0.38
  9
$DIMRND
 40
0.0
  9
$DIMDLE
 40
0.0
  9
$DIMEXE
 40
0.18
  9
$DIMTP
 40
0.0
  9
$DIMTM
 40
0.0
  9
$DIMTXT
 40
3.5
  9
$DIMCEN
 40
0.09
  9
$DIMTSZ
 40
0.0
  9
$DIMTOL
 70
           0
  9
$DIMLIM
 70
           0
  9
$DIMTIH
 70
           1
  9
$DIMTOH
 70
           1
  9
$DIMSE1
 70
           0
  9
$DIMSE2
 70
           0
  9
$DIMTAD
 70
           0
  9
$DIMZIN
 70
           0
  9
$DIMBLK
  1

  9
$DIMASO
 70
           1
  9
$DIMSHO
 70
           1
  9
$DIMPOST
  1

  9
$DIMAPOST
  1

  9
$DIMALT
 70
           0
  9
$DIMALTD
 70
           2
  9
$DIMALTF
 40
25.4
  9
$DIMLFAC
 40
1.0
  9
$DIMTOFL
 70
           0
  9
$DIMTVP
 40
0.0
  9
$DIMTIX
 70
           0
  9
$DIMSOXD
 70
           0
  9
$DIMSAH
 70
           0
  9
$DIMBLK1
  1

  9
$DIMBLK2
  1

  9
$DIMSTYLE
  2
STANDARD
  9
$DIMCLRD
 70
           0
  9
$DIMCLRE
 70
           0
  9
$DIMCLRT
 70
           0
  9
$DIMTFAC
 40
1.0
  9
$DIMGAP
 40
0.09
  9
$LUNITS
 70
           2
  9
$LUPREC
 70
           2
  9
$AXISMODE
 70
           0
  9
$AXISUNIT
 10
0.0
 20
0.0
  9
$SKETCHINC
 40
0.1
  9
$FILLETRAD
 40
0.0
  9
$AUNITS
 70
           0
  9
$AUPREC
 70
           2
  9
$MENU
  1
acad
  9
$ELEVATION
 40
0.0
  9
$PELEVATION
 40
0.0
  9
$THICKNESS
 40
0.0
  9
$LIMCHECK
 70
           0
  9
$BLIPMODE
 70
           1
  9
$CHAMFERA
 40
0.0
  9
$CHAMFERB
 40
0.0
  9
$SKPOLY
 70
           0
  9
$TDCREATE
 40
0.000000000
  9
$TDUPDATE
 40
0.000000000
  9
$TDINDWG
 40
0.0000000000
  9
$TDUSRTIMER
 40
0.0000000000
  9
$USRTIMER
 70
           1
  9
$ANGBASE
 50
0.0
  9
$ANGDIR
 70
           0
  9
$PDMODE
 70
           2
  9
$PDSIZE
 40
0.5
  9
$PLINEWID
 40
0.0
  9
$COORDS
 70
           0
  9
$SPLFRAME
 70
           0
  9
$SPLINETYPE
 70
           6
  9
$SPLINESEGS
 70
           8
  9
$ATTDIA
 70
           0
  9
$ATTREQ
 70
           1
  9
$HANDLING
 70
           1
  9
$HANDSEED
  5
1C4
  9
$SURFTAB1
 70
           6
  9
$SURFTAB2
 70
           6
  9
$SURFTYPE
 70
           6
  9
$SURFU
 70
           6
  9
$SURFV
 70
           6
  9
$UCSNAME
  2

  9
$UCSORG
 10
0.0
 20
0.0
 30
0.0
  9
$UCSXDIR
 10
1.0
 20
0.0
 30
0.0
  9
$UCSYDIR
 10
0.0
 20
1.0
 30
0.0
  9
$PUCSNAME
  2

  9
$PUCSORG
 10
0.0
 20
0.0
 30
0.0
  9
$PUCSXDIR
 10
1.0
 20
0.0
 30
0.0
  9
$PUCSYDIR
 10
0.0
 20
1.0
 30
0.0
  9
$USERI1
 70
           0
  9
$USERI2
 70
           0
  9
$USERI3
 70
           0
  9
$USERI4
 70
           0
  9
$USERI5
 70
           0
  9
$USERR1
 40
0.0
  9
$USERR2
 40
0.0
  9
$USERR3
 40
0.0
  9
$USERR4
 40
0.0
  9
$USERR5
 40
0.0
  9
$WORLDVIEW
 70
           1
  9
$SHADEDGE
 70
           3
  9
$SHADEDIF
 70
          70
  9
$TILEMODE
 70
           1
  9
$MAXACTVP
 70
          16
  9
$PINSBASE
 10
0.0
 20
0.0
 30
0.0
  9
$PLIMCHECK
 70
           0
  9
$PEXTMIN
 10
1.000000000000E+20
 20
1.000000000000E+20
 30
1.000000000000E+20
  9
$PEXTMAX
 10
-1.000000000000E+20
 20
-1.000000000000E+20
 30
-1.000000000000E+20
  9
$PLIMMIN
 10
0.0
 20
0.0
  9
$PLIMMAX
 10
12.0
 20
9.0
  9
$UNITMODE
 70
           0
  9
$VISRETAIN
 70
           0
  9
$PLINEGEN
 70
           1
  9
$PSLTSCALE
 70
           0
  9
$TREEDEPTH
 70
        3020
  9
$DWGCODEPAGE
  3
dos850
  0
ENDSEC
  0
SECTION
  2
TABLES
  0
TABLE
  2
VPORT
 70
           1
  0
VPORT
  2
*ACTIVE
 70
           0
 10
0.0
 20
0.0
 11
1.0
 21
1.0
 12
6.591288
 22
4.579184
 13
0.0
 23
0.0
 14
1.0
 24
1.0
 15
0.0
 25
0.0
 16
0.0
 26
0.0
 36
1.0
 17
0.0
 27
0.0
 37
0.0
 40
9.158369
 41
0.688564
 42
50.0
 43
0.0
 44
0.0
 50
0.0
 51
0.0
 71
           0
 72
         100
 73
           1
 74
           1
 75
           0
 76
           0
 77
           0
 78
           0
  0
ENDTAB
  0
TABLE
  2
LTYPE
 70
           4
  0
LTYPE
  2
CONTINUOUS
 70
          64
  3
Solid line
 72
          65
 73
           0
 40
0.0
  0
LTYPE
  2
AUSGEZOGEN
 70
           0
  3

 72
          65
 73
           2
 40
0.5
 49
0.25
 49
-0.25
  0
LTYPE
  2
VERDECKT
 70
           0
  3

 72
          65
 73
           2
 40
0.375
 49
0.25
 49
-0.125
  0
LTYPE
  2
STRICHPUNKT
 70
           0
  3

 72
          65
 73
           4
 40
1.0
 49
0.5
 49
-0.25
 49
0.0
 49
-0.25
  0
ENDTAB
  0
TABLE
  2
LAYER
 70
           5
  0
LAYER
  2
0
 70
           0
 62
           7
  6
CONTINUOUS
  0
LAYER
  2
ZEICHNUNG
 70
           0
 62
           7
  6
CONTINUOUS
  0
LAYER
  2
BEMAßUNG
 70
           0
 62
           7
  6
CONTINUOUS
  0
LAYER
  2
UNSICHTBARE
 70
           0
 62
           7
  6
CONTINUOUS
  0
LAYER
  2
MITTELLINIEN
 70
           0
 62
           7
  6
CONTINUOUS
  0
ENDTAB
  0
TABLE
  2
STYLE
 70
           1
  0
STYLE
  2
TXT
 70
           0
 40
3.5
 41
1.0
 50
0.0
 71
           0
 42
3.5
  3
TXT
  4

  0
ENDTAB
  0
TABLE
  2
VIEW
 70
           0
  0
ENDTAB
  0
TABLE
  2
UCS
 70
           0
  0
ENDTAB
  0
TABLE
  2
APPID
 70
           2
  0
APPID
  2
ACAD
 70
           0
  0
APPID
  2
MegaCADPntStyle
 70
           0
  0
ENDTAB
  0
TABLE
  2
DIMSTYLE
 70
           1
  0
DIMSTYLE
  2
STANDARD
 70
           0
  3

  4

  5

  6

  7

 40
1.0
 41
0.18
 42
0.0625
 43
0.38
 44
0.18
 45
0.0
 46
0.0
 47
0.0
 48
0.0
 71
           0
 72
           0
 73
           1
 74
           1
 75
           0
 76
           0
 77
           0
 78
           0
140
0.18
141
0.09
142
0.0
143
25.4
144
1.0
145
0.0
146
1.0
147
0.09
170
           0
171
           2
172
           0
173
           0
174
           0
175
           0
176
           0
177
           0
178
           0
  0
ENDTAB
  0
ENDSEC
  0
SECTION
  2
BLOCKS
  0
BLOCK
  8
0
  5
15D
  2
ELIPPSE
 70
          64
 10
0.0
 20
0.0
 30
0.0
  3
ELIPPSE
  0
CIRCLE
  8
0
  6
BYBLOCK
 62
           0
  5
15E
 10
0.0
 20
0.0
 30
0.0
 40
1.0
  0
ENDBLK
  8
0
  6
BYBLOCK
 62
           0
  5
15F
  0
BLOCK
  8
0
  5
160
  2
M6ANS_1
 70
          64
 10
0.0
 20
0.0
 30
0.0
  3
M6ANS_1
  0
LINE
  8
0
  6
BYBLOCK
 62
           0
  5
161
 10
5.0
 20
-2.886756896973
 30
0.0
 11
5.0
 21
2.886764526367
 31
0.0
  0
LINE
  8
0
  6
BYBLOCK
 62
           0
  5
162
 10
-5.0
 20
-2.886741638184
 30
0.0
 11
-5.0
 21
2.886749267578
 31
0.0
  0
LINE
  8
0
  6
BYBLOCK
 62
           0
  5
163
 10
5.0
 20
2.886764526367
 30
0.0
 11
0.000015258789
 21
5.773506164551
 31
0.0
  0
LINE
  8
0
  6
BYBLOCK
 62
           0
  5
164
 10
0.000015258789
 20
-5.773498535156
 30
0.0
 11
-5.0
 21
-2.886741638184
 31
0.0
  0
LINE
  8
0
  6
BYBLOCK
 62
           0
  5
165
 10
5.0
 20
-2.886756896973
 30
0.0
 11
0.000015258789
 21
-5.773498535156
 31
0.0
  0
LINE
  8
0
  6
BYBLOCK
 62
           0
  5
166
 10
0.000015258789
 20
5.773506164551
 30
0.0
 11
-5.0
 21
2.886749267578
 31
0.0
  0
CIRCLE
  8
0
  6
BYBLOCK
 62
           0
  5
167
 10
0.0
 20
0.000007629395
 30
0.0
 40
5.0
  0
CIRCLE
  8
0
  6
BYBLOCK
 62
           0
  5
168
 10
0.0
 20
0.000007629395
 30
0.0
 40
3.0
  0
ARC
  8
0
  6
BYBLOCK
 62
           0
  5
169
 10
0.0
 20
0.000007629395
 30
0.0
 40
2.5
 50
90.000001252239
 51
90.000001252239
  0
ENDBLK
  8
0
  6
BYBLOCK
 62
           0
  5
16A
  0
BLOCK
  8
0
  5
16B
  2
M6ANS_2
 70
          64
 10
0.0
 20
0.0
 30
0.0
  3
M6ANS_2
  0
LINE
  8
0
  6
BYBLOCK
 62
           0
  5
16C
 10
5.0
 20
-2.886756896973
 30
0.0
 11
5.0
 21
2.886764526367
 31
0.0
  0
LINE
  8
0
  6
BYBLOCK
 62
           0
  5
16D
 10
-5.0
 20
-2.886741638184
 30
0.0
 11
-5.0
 21
2.886749267578
 31
0.0
  0
LINE
  8
0
  6
BYBLOCK
 62
           0
  5
16E
 10
5.0
 20
2.886764526367
 30
0.0
 11
0.000015258789
 21
5.773506164551
 31
0.0
  0
LINE
  8
0
  6
BYBLOCK
 62
           0
  5
16F
 10
0.000015258789
 20
-5.773498535156
 30
0.0
 11
-5.0
 21
-2.886741638184
 31
0.0
  0
LINE
  8
0
  6
BYBLOCK
 62
           0
  5
170
 10
5.0
 20
-2.886756896973
 30
0.0
 11
0.000015258789
 21
-5.773498535156
 31
0.0
  0
LINE
  8
0
  6
BYBLOCK
 62
           0
  5
171
 10
0.000015258789
 20
5.773506164551
 30
0.0
 11
-5.0
 21
2.886749267578
 31
0.0
  0
CIRCLE
  8
0
  6
BYBLOCK
 62
           0
  5
172
 10
0.0
 20
0.000007629395
 30
0.0
 40
5.0
  0
CIRCLE
  8
0
  6
BYBLOCK
 62
           0
  5
173
 10
0.0
 20
0.000007629395
 30
0.0
 40
3.0
  0
ARC
  8
0
  6
BYBLOCK
 62
           0
  5
174
 10
0.0
 20
0.000007629395
 30
0.0
 40
2.5
 50
90.000001252239
 51
90.000001252239
  0
ENDBLK
  8
0
  6
BYBLOCK
 62
           0
  5
175
  0
BLOCK
  8
0
  5
176
  2
*X3
 70
          65
 10
0.0
 20
0.0
 30
0.0
  3
*X3
  0
LINE
  8
0
  6
BYBLOCK
 62
           0
  5
177
 10
688.768129214861
 20
-222.76801743571
 30
0.0
 11
691.609817504883
 21
-219.926329145688
 31
0.0
  0
LINE
  8
0
  6
BYBLOCK
 62
           0
  5
178
 10
684.525488527742
 20
-222.76801743571
 30
0.0
 11
687.609817504883
 21
-219.683688458569
 31
0.0
  0
LINE
  8
0
  6
BYBLOCK
 62
           0
  5
179
 10
687.609817504883
 20
-219.683688458569
 30
0.0
 11
688.609817504883
 21
-218.683688458569
 31
0.0
  0
LINE
  8
0
  6
BYBLOCK
 62
           0
  5
17A
 10
688.609817504883
 20
-218.683688458569
 30
0.0
 11
691.609817504883
 21
-215.683688458569
 31
0.0
  0
LINE
  8
0
  6
BYBLOCK
 62
           0
  5
17B
 10
680.282847840622
 20
-222.76801743571
 30
0.0
 11
687.609817504883
 21
-215.441047771449
 31
0.0
  0
LINE
  8
0
  6
BYBLOCK
 62
           0
  5
17C
 10
687.609817504883
 20
-215.441047771449
 30
0.0
 11
688.609817504883
 21
-214.441047771449
 31
0.0
  0
LINE
  8
0
  6
BYBLOCK
 62
           0
  5
17D
 10
688.609817504883
 20
-214.441047771449
 30
0.0
 11
691.609817504883
 21
-211.441047771449
 31
0.0
  0
LINE
  8
0
  6
BYBLOCK
 62
           0
  5
17E
 10
676.040207153503
 20
-222.76801743571
 30
0.0
 11
687.609817504883
 21
-211.19840708433
 31
0.0
  0
LINE
  8
0
  6
BYBLOCK
 62
           0
  5
17F
 10
687.609817504883
 20
-211.19840708433
 30
0.0
 11
688.609817504883
 21
-210.19840708433
 31
0.0
  0
LINE
  8
0
  6
BYBLOCK
 62
           0
  5
180
 10
688.609817504883
 20
-210.19840708433
 30
0.0
 11
690.040207153503
 21
-208.76801743571
 31
0.0
  0
LINE
  8
0
  6
BYBLOCK
 62
           0
  5
181
 10
671.797566466384
 20
-222.76801743571
 30
0.0
 11
685.797566466384
 21
-208.76801743571
 31
0.0
  0
LINE
  8
0
  6
BYBLOCK
 62
           0
  5
182
 10
667.554925779265
 20
-222.76801743571
 30
0.0
 11
681.554925779265
 21
-208.76801743571
 31
0.0
  0
LINE
  8
0
  6
BYBLOCK
 62
           0
  5
183
 10
665.109817504883
 20
-220.970485022972
 30
0.0
 11
666.109817504883
 21
-219.970485022972
 31
0.0
  0
LINE
  8
0
  6
BYBLOCK
 62
           0
  5
184
 10
666.109817504883
 20
-219.970485022972
 30
0.0
 11
677.312285092145
 21
-208.76801743571
 31
0.0
  0
LINE
  8
0
  6
BYBLOCK
 62
           0
  5
185
 10
659.069644405026
 20
-222.76801743571
 30
0.0
 11
659.109817504883
 21
-222.727844335853
 31
0.0
  0
LINE
  8
0
  6
BYBLOCK
 62
           0
  5
186
 10
665.109817504883
 20
-216.727844335853
 30
0.0
 11
666.109817504883
 21
-215.727844335853
 31
0.0
  0
LINE
  8
0
  6
BYBLOCK
 62
           0
  5
187
 10
666.109817504883
 20
-215.727844335853
 30
0.0
 11
673.069644405026
 21
-208.76801743571
 31
0.0
  0
LINE
  8
0
  6
BYBLOCK
 62
           0
  5
188
 10
654.827003717907
 20
-222.76801743571
 30
0.0
 11
658.109817504883
 21
-219.485203648734
 31
0.0
  0
LINE
  8
0
  6
BYBLOCK
 62
           0
  5
189
 10
658.109817504883
 20
-219.485203648734
 30
0.0
 11
659.109817504883
 21
-218.485203648734
 31
0.0
  0
LINE
  8
0
  6
BYBLOCK
 62
           0
  5
18A
 10
665.109817504883
 20
-212.485203648734
 30
0.0
 11
666.109817504883
 21
-211.485203648734
 31
0.0
  0
LINE
  8
0
  6
BYBLOCK
 62
           0
  5
18B
 10
666.109817504883
 20
-211.485203648734
 30
0.0
 11
668.827003717907
 21
-208.76801743571
 31
0.0
  0
LINE
  8
0
  6
BYBLOCK
 62
           0
  5
18C
 10
651.609817504883
 20
-221.742562961614
 30
0.0
 11
658.109817504883
 21
-215.242562961614
 31
0.0
  0
LINE
  8
0
  6
BYBLOCK
 62
           0
  5
18D
 10
658.109817504883
 20
-215.242562961614
 30
0.0
 11
659.109817504883
 21
-214.242562961614
 31
0.0
  0
LINE
  8
0
  6
BYBLOCK
 62
           0
  5
18E
 10
651.609817504883
 20
-217.499922274495
 30
0.0
 11
658.109817504883
 21
-210.999922274495
 31
0.0
  0
LINE
  8
0
  6
BYBLOCK
 62
           0
  5
18F
 10
658.109817504883
 20
-210.999922274495
 30
0.0
 11
659.109817504883
 21
-209.999922274495
 31
0.0
  0
LINE
  8
0
  6
BYBLOCK
 62
           0
  5
190
 10
651.609817504883
 20
-213.257281587376
 30
0.0
 11
656.099081656549
 21
-208.76801743571
 31
0.0
  0
LINE
  8
0
  6
BYBLOCK
 62
           0
  5
191
 10
651.609817504883
 20
-209.014640900256
 30
0.0
 11
651.85644096943
 21
-208.76801743571
 31
0.0
  0
ENDBLK
  8
0
  6
BYBLOCK
 62
           0
  5
192
  0
BLOCK
  8
0
  5
193
  2
*X4
 70
          65
 10
0.0
 20
0.0
 30
0.0
  3
*X4
  0
LINE
  8
0
  6
BYBLOCK
 62
           0
  5
194
 10
731.194536086054
 20
-222.76801743571
 30
0.0
 11
731.609817504883
 21
-222.352736016881
 31
0.0
  0
LINE
  8
0
  6
BYBLOCK
 62
           0
  5
195
 10
726.951895398935
 20
-222.76801743571
 30
0.0
 11
731.609817504883
 21
-218.110095329761
 31
0.0
  0
LINE
  8
0
  6
BYBLOCK
 62
           0
  5
196
 10
724.109817504883
 20
-221.367454642642
 30
0.0
 11
725.109817504883
 21
-220.367454642642
 31
0.0
  0
LINE
  8
0
  6
BYBLOCK
 62
           0
  5
197
 10
725.109817504883
 20
-220.367454642642
 30
0.0
 11
731.609817504883
 21
-213.867454642642
 31
0.0
  0
LINE
  8
0
  6
BYBLOCK
 62
           0
  5
198
 10
724.109817504883
 20
-217.124813955523
 30
0.0
 11
725.109817504883
 21
-216.124813955523
 31
0.0
  0
LINE
  8
0
  6
BYBLOCK
 62
           0
  5
199
 10
725.109817504883
 20
-216.124813955523
 30
0.0
 11
731.609817504883
 21
-209.624813955523
 31
0.0
  0
LINE
  8
0
  6
BYBLOCK
 62
           0
  5
19A
 10
714.223973337577
 20
-222.76801743571
 30
0.0
 11
717.109817504883
 21
-219.882173268404
 31
0.0
  0
LINE
  8
0
  6
BYBLOCK
 62
           0
  5
19B
 10
717.109817504883
 20
-219.882173268404
 30
0.0
 11
718.109817504883
 21
-218.882173268404
 31
0.0
  0
LINE
  8
0
  6
BYBLOCK
 62
           0
  5
19C
 10
724.109817504883
 20
-212.882173268404
 30
0.0
 11
725.109817504883
 21
-211.882173268404
 31
0.0
  0
LINE
  8
0
  6
BYBLOCK
 62
           0
  5
19D
 10
725.109817504883
 20
-211.882173268404
 30
0.0
 11
728.223973337577
 21
-208.76801743571
 31
0.0
  0
LINE
  8
0
  6
BYBLOCK
 62
           0
  5
19E
 10
709.981332650457
 20
-222.76801743571
 30
0.0
 11
717.109817504883
 21
-215.639532581284
 31
0.0
  0
LINE
  8
0
  6
BYBLOCK
 62
           0
  5
19F
 10
717.109817504883
 20
-215.639532581284
 30
0.0
 11
718.109817504883
 21
-214.639532581284
 31
0.0
  0
LINE
  8
0
  6
BYBLOCK
 62
           0
  5
1A0
 10
705.738691963338
 20
-222.76801743571
 30
0.0
 11
717.109817504883
 21
-211.396891894165
 31
0.0
  0
LINE
  8
0
  6
BYBLOCK
 62
           0
  5
1A1
 10
717.109817504883
 20
-211.396891894165
 30
0.0
 11
718.109817504883
 21
-210.396891894165
 31
0.0
  0
LINE
  8
0
  6
BYBLOCK
 62
           0
  5
1A2
 10
701.496051276219
 20
-222.76801743571
 30
0.0
 11
715.496051276219
 21
-208.76801743571
 31
0.0
  0
LINE
  8
0
  6
BYBLOCK
 62
           0
  5
1A3
 10
697.2534105891
 20
-222.76801743571
 30
0.0
 11
711.2534105891
 21
-208.76801743571
 31
0.0
  0
LINE
  8
0
  6
BYBLOCK
 62
           0
  5
1A4
 10
693.01076990198
 20
-222.76801743571
 30
0.0
 11
694.609817504883
 21
-221.168969832807
 31
0.0
  0
LINE
  8
0
  6
BYBLOCK
 62
           0
  5
1A5
 10
694.609817504883
 20
-221.168969832807
 30
0.0
 11
695.609817504883
 21
-220.168969832807
 31
0.0
  0
LINE
  8
0
  6
BYBLOCK
 62
           0
  5
1A6
 10
695.609817504883
 20
-220.168969832807
 30
0.0
 11
707.01076990198
 21
-208.76801743571
 31
0.0
  0
LINE
  8
0
  6
BYBLOCK
 62
           0
  5
1A7
 10
691.609817504883
 20
-219.926329145688
 30
0.0
 11
694.609817504883
 21
-216.926329145688
 31
0.0
  0
LINE
  8
0
  6
BYBLOCK
 62
           0
  5
1A8
 10
694.609817504883
 20
-216.926329145688
 30
0.0
 11
695.609817504883
 21
-215.926329145688
 31
0.0
  0
LINE
  8
0
  6
BYBLOCK
 62
           0
  5
1A9
 10
695.609817504883
 20
-215.926329145688
 30
0.0
 11
702.768129214861
 21
-208.76801743571
 31
0.0
  0
LINE
  8
0
  6
BYBLOCK
 62
           0
  5
1AA
 10
691.609817504883
 20
-215.683688458569
 30
0.0
 11
694.609817504883
 21
-212.683688458569
 31
0.0
  0
LINE
  8
0
  6
BYBLOCK
 62
           0
  5
1AB
 10
694.609817504883
 20
-212.683688458569
 30
0.0
 11
695.609817504883
 21
-211.683688458569
 31
0.0
  0
LINE
  8
0
  6
BYBLOCK
 62
           0
  5
1AC
 10
695.609817504883
 20
-211.683688458569
 30
0.0
 11
698.525488527742
 21
-208.76801743571
 31
0.0
  0
LINE
  8
0
  6
BYBLOCK
 62
           0
  5
1AD
 10
691.609817504883
 20
-211.441047771449
 30
0.0
 11
694.282847840622
 21
-208.76801743571
 31
0.0
  0
ENDBLK
  8
0
  6
BYBLOCK
 62
           0
  5
1AE
  0
BLOCK
  8
0
  5
1AF
  2
*X5
 70
          65
 10
0.0
 20
0.0
 30
0.0
  3
*X5
  0
LINE
  8
0
  6
BYBLOCK
 62
           0
  5
1B0
 10
705.708724686882
 20
-226.921928122479
 30
0.0
 11
703.054814000113
 21
-224.26801743571
 31
0.0
  0
LINE
  8
0
  6
BYBLOCK
 62
           0
  5
1B1
 10
701.591077864083
 20
-227.046921986798
 30
0.0
 11
698.812173312994
 21
-224.26801743571
 31
0.0
  0
LINE
  8
0
  6
BYBLOCK
 62
           0
  5
1B2
 10
706.267290416157
 20
-235.965775225992
 30
0.0
 11
705.04571127176
 21
-234.744196081595
 31
0.0
  0
LINE
  8
0
  6
BYBLOCK
 62
           0
  5
1B3
 10
700.609817504883
 20
-230.308302314718
 30
0.0
 11
697.859817504883
 21
-227.558302314718
 31
0.0
  0
LINE
  8
0
  6
BYBLOCK
 62
           0
  5
1B4
 10
703.577562423518
 20
-237.518687920473
 30
0.0
 11
695.626888886998
 21
-229.568014383952
 31
0.0
  0
LINE
  8
0
  6
BYBLOCK
 62
           0
  5
1B5
 10
702.609817504883
 20
-240.793583688956
 30
0.0
 11
697.109817504883
 21
-235.293583688956
 31
0.0
  0
LINE
  8
0
  6
BYBLOCK
 62
           0
  5
1B6
 10
696.084251251636
 20
-234.26801743571
 30
0.0
 11
694.909820556641
 21
-233.093586740714
 31
0.0
  0
LINE
  8
0
  6
BYBLOCK
 62
           0
  5
1B7
 10
701.841614379214
 20
-244.268021250407
 30
0.0
 11
697.109817504883
 21
-239.536224376076
 31
0.0
  0
LINE
  8
0
  6
BYBLOCK
 62
           0
  5
1B8
 10
688.309814453125
 20
-230.736221324318
 30
0.0
 11
687.141607512759
 21
-229.568014383952
 31
0.0
  0
LINE
  8
0
  6
BYBLOCK
 62
           0
  5
1B9
 10
685.359817504883
 20
-227.786224376076
 30
0.0
 11
681.841610564517
 21
-224.26801743571
 31
0.0
  0
LINE
  8
0
  6
BYBLOCK
 62
           0
  5
1BA
 10
697.598973692095
 20
-244.268021250407
 30
0.0
 11
694.909820556641
 21
-241.578868114953
 31
0.0
  0
LINE
  8
0
  6
BYBLOCK
 62
           0
  5
1BB
 10
687.598969877398
 20
-234.26801743571
 30
0.0
 11
682.609817504883
 21
-229.278865063195
 31
0.0
  0
LINE
  8
0
  6
BYBLOCK
 62
           0
  5
1BC
 10
680.098969877398
 20
-226.76801743571
 30
0.0
 11
678.187878494723
 21
-224.856926053035
 31
0.0
  0
LINE
  8
0
  6
BYBLOCK
 62
           0
  5
1BD
 10
686.109817504883
 20
-237.021505750314
 30
0.0
 11
682.128596656871
 21
-233.040284902303
 31
0.0
  0
LINE
  8
0
  6
BYBLOCK
 62
           0
  5
1BE
 10
688.309814453125
 20
-243.464143385676
 30
0.0
 11
679.613688503159
 21
-234.76801743571
 31
0.0
  0
LINE
  8
0
  6
BYBLOCK
 62
           0
  5
1BF
 10
684.871051630737
 20
-244.268021250407
 30
0.0
 11
680.609817504883
 21
-240.006787124553
 31
0.0
  0
LINE
  8
0
  6
BYBLOCK
 62
           0
  5
1C0
 10
680.628410943618
 20
-244.268021250407
 30
0.0
 11
680.609817504883
 21
-244.249427811672
 31
0.0
  0
ENDBLK
  8
0
  6
BYBLOCK
 62
           0
  5
1C1
  0
ENDSEC
  0
SECTION
  2
ENTITIES
  0
INSERT
  8
ZEICHNUNG
  6
AUSGEZOGEN
 62
           1
  5
2B
  2
M6ANS_1
 10
464.109817504883
 20
-360.268005991618
 30
0.0
  0
INSERT
  8
ZEICHNUNG
  6
AUSGEZOGEN
 62
           1
  5
2C
  2
M6ANS_2
 10
524.109817504883
 20
-360.268005991618
 30
0.0
  0
LINE
  8
ZEICHNUNG
  6
AUSGEZOGEN
 62
           1
  5
2D
 10
449.109817504883
 20
-208.76801743571
 30
0.0
 11
539.109817504883
 21
-208.76801743571
 31
0.0
  0
LINE
  8
ZEICHNUNG
  6
AUSGEZOGEN
 62
           1
  5
2E
 10
539.109817504883
 20
-222.76801743571
 30
0.0
 11
539.109817504883
 21
-208.76801743571
 31
0.0
  0
LINE
  8
ZEICHNUNG
  6
AUSGEZOGEN
 62
           1
  5
2F
 10
449.109817504883
 20
-222.76801743571
 30
0.0
 11
449.109817504883
 21
-208.76801743571
 31
0.0
  0
LINE
  8
BEMAßUNG
  6
STRICHPUNKT
 62
           2
  5
30
 10
524.109817504883
 20
-239.768021250407
 30
0.0
 11
524.109817504883
 21
-220.0
 31
0.0
  0
LINE
  8
BEMAßUNG
  6
STRICHPUNKT
 62
           2
  5
31
 10
464.109817504883
 20
-239.768021250407
 30
0.0
 11
464.109817504883
 21
-220.0
 31
0.0
  0
LINE
  8
BEMAßUNG
  6
STRICHPUNKT
 62
           2
  5
32
 10
365.0
 20
-332.768021250407
 30
0.0
 11
725.0
 21
-332.768021250407
 31
0.0
  0
LINE
  8
BEMAßUNG
  6
STRICHPUNKT
 62
           2
  5
33
 10
494.109817504883
 20
-240.0
 30
0.0
 11
494.109817504883
 21
-205.0
 31
0.0
  0
LINE
  8
BEMAßUNG
  6
STRICHPUNKT
 62
           2
  5
34
 10
529.109817504883
 20
-230.0
 30
0.0
 11
529.109817504883
 21
-205.0
 31
0.0
  0
LINE
  8
BEMAßUNG
  6
STRICHPUNKT
 62
           2
  5
35
 10
459.109817504883
 20
-230.0
 30
0.0
 11
459.109817504883
 21
-205.0
 31
0.0
  0
LINE
  8
ZEICHNUNG
  6
AUSGEZOGEN
 62
           1
  5
36
 10
449.109817504883
 20
-289.768036509196
 30
0.0
 11
539.109817504883
 21
-289.768036509196
 31
0.0
  0
LINE
  8
ZEICHNUNG
  6
AUSGEZOGEN
 62
           1
  5
37
 10
449.109817504883
 20
-375.768036509196
 30
0.0
 11
539.109817504883
 21
-375.768036509196
 31
0.0
  0
LINE
  8
ZEICHNUNG
  6
AUSGEZOGEN
 62
           1
  5
38
 10
539.109817504883
 20
-289.768036509196
 30
0.0
 11
539.109817504883
 21
-375.768036509196
 31
0.0
  0
LINE
  8
ZEICHNUNG
  6
AUSGEZOGEN
 62
           1
  5
39
 10
449.109817504883
 20
-289.768036509196
 30
0.0
 11
449.109817504883
 21
-375.768036509196
 31
0.0
  0
LINE
  8
BEMAßUNG
  6
STRICHPUNKT
 62
           2
  5
3A
 10
484.507960867377
 20
-303.268036509196
 30
0.0
 11
504.163223266602
 21
-303.268036509196
 31
0.0
  0
LINE
  8
BEMAßUNG
  6
STRICHPUNKT
 62
           2
  5
3B
 10
484.163223266602
 20
-362.268036509196
 30
0.0
 11
504.163223266602
 21
-362.268036509196
 31
0.0
  0
LINE
  8
BEMAßUNG
  6
STRICHPUNKT
 62
           2
  5
3C
 10
529.109817504883
 20
-326.158219004313
 30
0.0
 11
529.109817504883
 21
-341.158219004313
 31
0.0
  0
LINE
  8
BEMAßUNG
  6
STRICHPUNKT
 62
           2
  5
3D
 10
459.109817504883
 20
-323.827796985016
 30
0.0
 11
459.109817504883
 21
-340.075418411611
 31
0.0
  0
CIRCLE
  8
ZEICHNUNG
  6
AUSGEZOGEN
 62
           1
  5
3E
 10
529.109817504883
 20
-332.768036509196
 30
0.0
 40
3.0
  0
CIRCLE
  8
ZEICHNUNG
  6
AUSGEZOGEN
 62
           1
  5
3F
 10
494.109817504883
 20
-303.268036509196
 30
0.0
 40
3.0
  0
CIRCLE
  8
ZEICHNUNG
  6
AUSGEZOGEN
 62
           1
  5
40
 10
494.109817504883
 20
-362.268036509196
 30
0.0
 40
3.0
  0
CIRCLE
  8
ZEICHNUNG
  6
AUSGEZOGEN
 62
           1
  5
41
 10
459.109817504883
 20
-332.768036509196
 30
0.0
 40
3.0
  0
LINE
  8
ZEICHNUNG
  6
AUSGEZOGEN
 62
           1
  5
42
 10
449.109817504883
 20
-289.768021250407
 30
0.0
 11
539.109817504883
 21
-289.768021250407
 31
0.0
  0
LINE
  8
ZEICHNUNG
  6
AUSGEZOGEN
 62
           1
  5
43
 10
449.109817504883
 20
-375.768021250407
 30
0.0
 11
539.109817504883
 21
-375.768021250407
 31
0.0
  0
LINE
  8
ZEICHNUNG
  6
AUSGEZOGEN
 62
           1
  5
44
 10
539.109817504883
 20
-345.568039560954
 30
0.0
 11
539.109817504883
 21
-375.768021250407
 31
0.0
  0
LINE
  8
ZEICHNUNG
  6
AUSGEZOGEN
 62
           1
  5
45
 10
539.109817504883
 20
-289.768021250407
 30
0.0
 11
539.109817504883
 21
-341.914414072673
 31
0.0
  0
LINE
  8
ZEICHNUNG
  6
AUSGEZOGEN
 62
           1
  5
46
 10
449.109817504883
 20
-289.768021250407
 30
0.0
 11
449.109817504883
 21
-375.768021250407
 31
0.0
  0
LINE
  8
BEMAßUNG
  6
STRICHPUNKT
 62
           2
  5
47
 10
494.109817504883
 20
-289.768021250407
 30
0.0
 11
494.109817504883
 21
-375.768021250407
 31
0.0
  0
LINE
  8
BEMAßUNG
  6
STRICHPUNKT
 62
           2
  5
48
 10
524.109817504883
 20
-289.768021250407
 30
0.0
 11
524.109817504883
 21
-375.768021250407
 31
0.0
  0
LINE
  8
BEMAßUNG
  6
STRICHPUNKT
 62
           2
  5
49
 10
464.109817504883
 20
-289.768021250407
 30
0.0
 11
464.109817504883
 21
-375.768021250407
 31
0.0
  0
CIRCLE
  8
ZEICHNUNG
  6
AUSGEZOGEN
 62
           1
  5
4A
 10
529.109817504883
 20
-332.768021250407
 30
0.0
 40
3.0
  0
CIRCLE
  8
ZEICHNUNG
  6
AUSGEZOGEN
 62
           1
  5
4B
 10
494.109817504883
 20
-303.268021250407
 30
0.0
 40
3.0
  0
CIRCLE
  8
ZEICHNUNG
  6
AUSGEZOGEN
 62
           1
  5
4C
 10
494.109817504883
 20
-362.268021250407
 30
0.0
 40
3.0
  0
CIRCLE
  8
ZEICHNUNG
  6
AUSGEZOGEN
 62
           1
  5
4D
 10
459.109817504883
 20
-332.768021250407
 30
0.0
 40
3.0
  0
ARC
  8
MITTELLINIEN
  6
AUSGEZOGEN
 62
           2
  5
4E
 10
529.109817504883
 20
-332.768021250407
 30
0.0
 40
4.0
 50
349.999997672743
 51
260.000000290906
  0
ARC
  8
MITTELLINIEN
  6
AUSGEZOGEN
 62
           2
  5
4F
 10
494.109817504883
 20
-362.268021250407
 30
0.0
 40
4.0
 50
349.999997672743
 51
260.000000290906
  0
ARC
  8
MITTELLINIEN
  6
AUSGEZOGEN
 62
           2
  5
50
 10
494.109817504883
 20
-303.268021250407
 30
0.0
 40
4.0
 50
349.999997672743
 51
260.000000290906
  0
ARC
  8
MITTELLINIEN
  6
AUSGEZOGEN
 62
           2
  5
51
 10
459.109817504883
 20
-332.768021250407
 30
0.0
 40
4.0
 50
349.999997672743
 51
260.000000290906
  0
LINE
  8
BEMAßUNG
  6
STRICHPUNKT
 62
           2
  5
52
 10
447.139531628282
 20
-360.268021250407
 30
0.0
 11
538.857528686523
 21
-360.268021250407
 31
0.0
  0
LINE
  8
BEMAßUNG
  6
STRICHPUNKT
 62
           2
  5
53
 10
447.429209374322
 20
-305.268021250407
 30
0.0
 11
539.163223266602
 21
-305.268021250407
 31
0.0
  0
CIRCLE
  8
UNSICHTBARE
  6
VERDECKT
 62
           2
  5
54
 10
524.109817504883
 20
-305.268021250407
 30
0.0
 40
12.0
  0
CIRCLE
  8
UNSICHTBARE
  6
VERDECKT
 62
           2
  5
55
 10
464.109817504883
 20
-305.268021250407
 30
0.0
 40
12.0
  0
CIRCLE
  8
UNSICHTBARE
  6
VERDECKT
 62
           2
  5
56
 10
464.109817504883
 20
-360.268021250407
 30
0.0
 40
12.0
  0
CIRCLE
  8
UNSICHTBARE
  6
VERDECKT
 62
           2
  5
57
 10
524.109817504883
 20
-360.268021250407
 30
0.0
 40
12.0
  0
LINE
  8
UNSICHTBARE
  6
VERDECKT
 62
           2
  5
58
 10
490.109817504883
 20
-222.76801743571
 30
0.0
 11
490.109817504883
 21
-208.76801743571
 31
0.0
  0
LINE
  8
UNSICHTBARE
  6
VERDECKT
 62
           2
  5
59
 10
498.109817504883
 20
-222.76801743571
 30
0.0
 11
498.109817504883
 21
-208.76801743571
 31
0.0
  0
LINE
  8
UNSICHTBARE
  6
VERDECKT
 62
           2
  5
5A
 10
491.109817504883
 20
-222.76801743571
 30
0.0
 11
491.109817504883
 21
-208.76801743571
 31
0.0
  0
LINE
  8
UNSICHTBARE
  6
VERDECKT
 62
           2
  5
5B
 10
497.109817504883
 20
-222.76801743571
 30
0.0
 11
497.109817504883
 21
-208.76801743571
 31
0.0
  0
ARC
  8
ZEICHNUNG
  6
AUSGEZOGEN
 62
           1
  5
5C
 10
524.109817504883
 20
-305.268021250407
 30
0.0
 40
3.0
 50
0.0
 51
0.0
  0
CIRCLE
  8
MITTELLINIEN
  6
AUSGEZOGEN
 62
           2
  5
5D
 10
524.109817504883
 20
-305.268021250407
 30
0.0
 40
2.5
  0
ARC
  8
ZEICHNUNG
  6
AUSGEZOGEN
 62
           1
  5
5E
 10
464.109817504883
 20
-305.268021250407
 30
0.0
 40
3.0
 50
0.0
 51
0.0
  0
CIRCLE
  8
MITTELLINIEN
  6
AUSGEZOGEN
 62
           2
  5
5F
 10
464.109817504883
 20
-305.268021250407
 30
0.0
 40
2.5
  0
LINE
  8
ZEICHNUNG
  6
AUSGEZOGEN
 62
           1
  5
60
 10
694.909820556641
 20
-244.268021250407
 30
0.0
 11
702.609817504883
 21
-244.268021250407
 31
0.0
  0
LINE
  8
ZEICHNUNG
  6
AUSGEZOGEN
 62
           1
  5
61
 10
694.909820556641
 20
-244.268021250407
 30
0.0
 11
694.909820556641
 21
-240.268021250407
 31
0.0
  0
LINE
  8
ZEICHNUNG
  6
AUSGEZOGEN
 62
           1
  5
62
 10
694.909820556641
 20
-240.268021250407
 30
0.0
 11
697.109817504883
 21
-240.268021250407
 31
0.0
  0
LINE
  8
ZEICHNUNG
  6
AUSGEZOGEN
 62
           1
  5
63
 10
697.859817504883
 20
-224.26801743571
 30
0.0
 11
704.011734008789
 21
-224.26801743571
 31
0.0
  0
LINE
  8
ZEICHNUNG
  6
AUSGEZOGEN
 62
           1
  5
64
 10
694.909820556641
 20
-234.26801743571
 30
0.0
 11
694.909820556641
 21
-229.568014383952
 31
0.0
  0
LINE
  8
ZEICHNUNG
  6
AUSGEZOGEN
 62
           1
  5
65
 10
697.859817504883
 20
-229.568014383952
 30
0.0
 11
697.859817504883
 21
-224.26801743571
 31
0.0
  0
LINE
  8
ZEICHNUNG
  6
AUSGEZOGEN
 62
           1
  5
66
 10
697.109817504883
 20
-240.268021250407
 30
0.0
 11
697.109817504883
 21
-234.26801743571
 31
0.0
  0
LINE
  8
ZEICHNUNG
  6
AUSGEZOGEN
 62
           1
  5
67
 10
700.609817504883
 20
-232.76801743571
 30
0.0
 11
700.609817504883
 21
-228.76801743571
 31
0.0
  0
LINE
  8
ZEICHNUNG
  6
AUSGEZOGEN
 62
           1
  5
68
 10
702.609817504883
 20
-234.76801743571
 30
0.0
 11
704.609817504883
 21
-234.76801743571
 31
0.0
  0
LINE
  8
ZEICHNUNG
  6
AUSGEZOGEN
 62
           1
  5
69
 10
702.609817504883
 20
-226.76801743571
 30
0.0
 11
704.609817504883
 21
-226.76801743571
 31
0.0
  0
CIRCLE
  8
ZEICHNUNG
  6
AUSGEZOGEN
 62
           1
  5
6A
 10
704.609817504883
 20
-230.76801743571
 30
0.0
 40
4.0
  0
LINE
  8
BEMAßUNG
  6
STRICHPUNKT
 62
           2
  5
6B
 10
699.886703491211
 20
-230.76801743571
 30
0.0
 11
709.045547485352
 21
-230.76801743571
 31
0.0
  0
LINE
  8
BEMAßUNG
  6
STRICHPUNKT
 62
           2
  5
6C
 10
704.609817504883
 20
-235.323574686686
 30
0.0
 11
704.609817504883
 21
-226.332005167643
 31
0.0
  0
LINE
  8
ZEICHNUNG
  6
AUSGEZOGEN
 62
           1
  5
6D
 10
706.609817504883
 20
-226.860249186198
 30
0.0
 11
706.609817504883
 21
-225.76801743571
 31
0.0
  0
LINE
  8
ZEICHNUNG
  6
AUSGEZOGEN
 62
           1
  5
6E
 10
706.609817504883
 20
-235.76801743571
 30
0.0
 11
706.609817504883
 21
-234.675785685221
 31
0.0
  0
LINE
  8
ZEICHNUNG
  6
AUSGEZOGEN
 62
           1
  5
6F
 10
706.609817504883
 20
-225.76801743571
 30
0.0
 11
704.011734008789
 21
-224.26801743571
 31
0.0
  0
LINE
  8
ZEICHNUNG
  6
AUSGEZOGEN
 62
           1
  5
70
 10
702.609817504883
 20
-238.077414815267
 30
0.0
 11
706.609817504883
 21
-235.76801743571
 31
0.0
  0
LINE
  8
ZEICHNUNG
  6
AUSGEZOGEN
 62
           1
  5
71
 10
707.209823608398
 20
-227.728283548991
 30
0.0
 11
707.209823608398
 21
-226.068020487467
 31
0.0
  0
LINE
  8
ZEICHNUNG
  6
AUSGEZOGEN
 62
           1
  5
72
 10
707.209823608398
 20
-235.468014383952
 30
0.0
 11
707.209823608398
 21
-233.807751322428
 31
0.0
  0
ARC
  8
ZEICHNUNG
  6
AUSGEZOGEN
 62
           1
  5
73
 10
702.609817504883
 20
-228.76801743571
 30
0.0
 40
2.0
 50
90.000002504478
 51
180.000005008956
  0
ARC
  8
ZEICHNUNG
  6
AUSGEZOGEN
 62
           1
  5
74
 10
702.609817504883
 20
-232.76801743571
 30
0.0
 40
2.0
 50
180.000005008957
 51
269.999997495521
  0
LINE
  8
ZEICHNUNG
  6
AUSGEZOGEN
 62
           1
  5
75
 10
706.609817504883
 20
-226.860249186198
 30
0.0
 11
706.009811401367
 21
-227.02101578776
 31
0.0
  0
LINE
  8
ZEICHNUNG
  6
AUSGEZOGEN
 62
           1
  5
76
 10
706.609817504883
 20
-234.675785685221
 30
0.0
 11
706.009811401367
 21
-234.515019083659
 31
0.0
  0
ARC
  8
ZEICHNUNG
  6
AUSGEZOGEN
 62
           1
  5
77
 10
704.609817504883
 20
-230.76801743571
 30
0.0
 40
4.0
 50
310.541667899115
 51
49.458332100884
  0
ARC
  8
ZEICHNUNG
  6
AUSGEZOGEN
 62
           1
  5
78
 10
704.609817504883
 20
-230.76801743571
 30
0.0
 40
4.0
 50
69.5128022777
 51
90.000022995045
  0
ARC
  8
ZEICHNUNG
  6
AUSGEZOGEN
 62
           1
  5
79
 10
704.609817504883
 20
-230.76801743571
 30
0.0
 40
4.0
 50
269.999977004954
 51
290.487197722298
  0
LINE
  8
ZEICHNUNG
  6
AUSGEZOGEN
 62
           1
  5
7A
 10
676.009811401367
 20
-227.728283548991
 30
0.0
 11
676.009811401367
 21
-226.068020487467
 31
0.0
  0
LINE
  8
ZEICHNUNG
  6
AUSGEZOGEN
 62
           1
  5
7B
 10
676.009811401367
 20
-235.468014383952
 30
0.0
 11
676.009811401367
 21
-233.807751322428
 31
0.0
  0
LINE
  8
ZEICHNUNG
  6
AUSGEZOGEN
 62
           1
  5
7C
 10
652.009811401367
 20
-227.728283548991
 30
0.0
 11
652.009811401367
 21
-226.068020487467
 31
0.0
  0
LINE
  8
ZEICHNUNG
  6
AUSGEZOGEN
 62
           1
  5
7D
 10
652.009811401367
 20
-235.468014383952
 30
0.0
 11
652.009811401367
 21
-233.807751322428
 31
0.0
  0
LINE
  8
ZEICHNUNG
  6
AUSGEZOGEN
 62
           1
  5
7E
 10
664.109817504883
 20
-225.26801743571
 30
0.0
 11
652.809814453125
 21
-225.26801743571
 31
0.0
  0
LINE
  8
ZEICHNUNG
  6
AUSGEZOGEN
 62
           1
  5
7F
 10
675.209808349609
 20
-225.26801743571
 30
0.0
 11
664.109817504883
 21
-225.26801743571
 31
0.0
  0
LINE
  8
ZEICHNUNG
  6
AUSGEZOGEN
 62
           1
  5
80
 10
652.809814453125
 20
-236.26801743571
 30
0.0
 11
675.209808349609
 21
-236.26801743571
 31
0.0
  0
ARC
  8
ZEICHNUNG
  6
AUSGEZOGEN
 62
           1
  5
81
 10
649.409805297852
 20
-230.76801743571
 30
0.0
 40
4.0
 50
310.54171571044
 51
49.45828428956
  0
LINE
  8
ZEICHNUNG
  6
AUSGEZOGEN
 62
           1
  5
82
 10
652.809814453125
 20
-225.26801743571
 30
0.0
 11
652.009811401367
 21
-226.068020487467
 31
0.0
  0
LINE
  8
ZEICHNUNG
  6
AUSGEZOGEN
 62
           1
  5
83
 10
652.009811401367
 20
-235.468014383952
 30
0.0
 11
652.809814453125
 21
-236.26801743571
 31
0.0
  0
LINE
  8
ZEICHNUNG
  6
AUSGEZOGEN
 62
           1
  5
84
 10
675.209808349609
 20
-236.26801743571
 30
0.0
 11
676.009811401367
 21
-235.468014383952
 31
0.0
  0
LINE
  8
ZEICHNUNG
  6
AUSGEZOGEN
 62
           1
  5
85
 10
676.009811401367
 20
-226.068020487467
 30
0.0
 11
675.209808349609
 21
-225.26801743571
 31
0.0
  0
LINE
  8
ZEICHNUNG
  6
AUSGEZOGEN
 62
           1
  5
86
 10
669.909805297852
 20
-225.26801743571
 30
0.0
 11
669.909805297852
 21
-223.76801743571
 31
0.0
  0
LINE
  8
ZEICHNUNG
  6
AUSGEZOGEN
 62
           1
  5
87
 10
658.109817504883
 20
-225.26801743571
 30
0.0
 11
658.109817504883
 21
-223.76801743571
 31
0.0
  0
LINE
  8
ZEICHNUNG
  6
AUSGEZOGEN
 62
           1
  5
88
 10
657.109817504883
 20
-223.76801743571
 30
0.0
 11
671.109817504883
 21
-223.76801743571
 31
0.0
  0
ARC
  8
ZEICHNUNG
  6
AUSGEZOGEN
 62
           1
  5
89
 10
678.609817504883
 20
-230.76801743571
 30
0.0
 40
4.0
 50
130.541662662789
 51
229.458337337211
  0
LINE
  8
ZEICHNUNG
  6
AUSGEZOGEN
 62
           1
  5
8A
 10
731.609817504883
 20
-222.76801743571
 30
0.0
 11
731.609817504883
 21
-208.76801743571
 31
0.0
  0
LINE
  8
ZEICHNUNG
  6
AUSGEZOGEN
 62
           1
  5
8B
 10
731.609817504883
 20
-208.76801743571
 30
0.0
 11
651.609817504883
 21
-208.76801743571
 31
0.0
  0
LINE
  8
ZEICHNUNG
  6
AUSGEZOGEN
 62
           1
  5
8C
 10
651.609817504883
 20
-222.76801743571
 30
0.0
 11
651.609817504883
 21
-208.76801743571
 31
0.0
  0
LINE
  8
ZEICHNUNG
  6
AUSGEZOGEN
 62
           1
  5
8D
 10
688.309814453125
 20
-244.268021250407
 30
0.0
 11
680.609817504883
 21
-244.268021250407
 31
0.0
  0
LINE
  8
ZEICHNUNG
  6
AUSGEZOGEN
 62
           1
  5
8E
 10
688.309814453125
 20
-244.268021250407
 30
0.0
 11
688.309814453125
 21
-240.268021250407
 31
0.0
  0
LINE
  8
ZEICHNUNG
  6
AUSGEZOGEN
 62
           1
  5
8F
 10
688.309814453125
 20
-240.268021250407
 30
0.0
 11
686.109817504883
 21
-240.268021250407
 31
0.0
  0
LINE
  8
ZEICHNUNG
  6
AUSGEZOGEN
 62
           1
  5
90
 10
697.109817504883
 20
-234.26801743571
 30
0.0
 11
686.109817504883
 21
-234.26801743571
 31
0.0
  0
LINE
  8
ZEICHNUNG
  6
AUSGEZOGEN
 62
           1
  5
91
 10
685.359817504883
 20
-224.26801743571
 30
0.0
 11
679.207901000977
 21
-224.26801743571
 31
0.0
  0
LINE
  8
ZEICHNUNG
  6
AUSGEZOGEN
 62
           1
  5
92
 10
688.309814453125
 20
-234.26801743571
 30
0.0
 11
688.309814453125
 21
-229.568014383952
 31
0.0
  0
LINE
  8
ZEICHNUNG
  6
AUSGEZOGEN
 62
           1
  5
93
 10
685.359817504883
 20
-229.568014383952
 30
0.0
 11
685.359817504883
 21
-224.26801743571
 31
0.0
  0
LINE
  8
ZEICHNUNG
  6
AUSGEZOGEN
 62
           1
  5
94
 10
686.109817504883
 20
-240.268021250407
 30
0.0
 11
686.109817504883
 21
-234.26801743571
 31
0.0
  0
LINE
  8
ZEICHNUNG
  6
AUSGEZOGEN
 62
           1
  5
95
 10
682.609817504883
 20
-232.76801743571
 30
0.0
 11
682.609817504883
 21
-228.76801743571
 31
0.0
  0
LINE
  8
ZEICHNUNG
  6
AUSGEZOGEN
 62
           1
  5
96
 10
680.609817504883
 20
-234.76801743571
 30
0.0
 11
678.609817504883
 21
-234.76801743571
 31
0.0
  0
LINE
  8
ZEICHNUNG
  6
AUSGEZOGEN
 62
           1
  5
97
 10
680.609817504883
 20
-226.76801743571
 30
0.0
 11
678.609817504883
 21
-226.76801743571
 31
0.0
  0
CIRCLE
  8
ZEICHNUNG
  6
AUSGEZOGEN
 62
           1
  5
98
 10
678.609817504883
 20
-230.76801743571
 30
0.0
 40
4.0
  0
LINE
  8
BEMAßUNG
  6
STRICHPUNKT
 62
           2
  5
99
 10
683.332931518555
 20
-230.76801743571
 30
0.0
 11
674.174087524414
 21
-230.76801743571
 31
0.0
  0
LINE
  8
BEMAßUNG
  6
STRICHPUNKT
 62
           2
  5
9A
 10
678.609817504883
 20
-235.323574686686
 30
0.0
 11
678.609817504883
 21
-226.332005167643
 31
0.0
  0
LINE
  8
ZEICHNUNG
  6
AUSGEZOGEN
 62
           1
  5
9B
 10
676.609817504883
 20
-226.860249186198
 30
0.0
 11
676.609817504883
 21
-225.76801743571
 31
0.0
  0
LINE
  8
ZEICHNUNG
  6
AUSGEZOGEN
 62
           1
  5
9C
 10
676.609817504883
 20
-235.76801743571
 30
0.0
 11
676.609817504883
 21
-234.675785685221
 31
0.0
  0
LINE
  8
ZEICHNUNG
  6
AUSGEZOGEN
 62
           1
  5
9D
 10
676.609817504883
 20
-225.76801743571
 30
0.0
 11
679.207901000977
 21
-224.26801743571
 31
0.0
  0
LINE
  8
ZEICHNUNG
  6
AUSGEZOGEN
 62
           1
  5
9E
 10
680.609817504883
 20
-238.077414815267
 30
0.0
 11
676.609817504883
 21
-235.76801743571
 31
0.0
  0
LINE
  8
ZEICHNUNG
  6
AUSGEZOGEN
 62
           1
  5
9F
 10
697.859817504883
 20
-229.568014383952
 30
0.0
 11
685.359817504883
 21
-229.568014383952
 31
0.0
  0
ARC
  8
ZEICHNUNG
  6
AUSGEZOGEN
 62
           1
  5
A0
 10
680.609817504883
 20
-228.76801743571
 30
0.0
 40
2.0
 50
359.999994991043
 51
89.999995674289
  0
ARC
  8
ZEICHNUNG
  6
AUSGEZOGEN
 62
           1
  5
A1
 10
680.609817504883
 20
-232.76801743571
 30
0.0
 40
2.0
 50
270.00000432571
 51
359.999994991042
  0
LINE
  8
ZEICHNUNG
  6
AUSGEZOGEN
 62
           1
  5
A2
 10
676.609817504883
 20
-226.860249186198
 30
0.0
 11
677.209823608398
 21
-227.02101578776
 31
0.0
  0
LINE
  8
ZEICHNUNG
  6
AUSGEZOGEN
 62
           1
  5
A3
 10
676.609817504883
 20
-234.675785685221
 30
0.0
 11
677.209823608398
 21
-234.515019083659
 31
0.0
  0
ARC
  8
ZEICHNUNG
  6
AUSGEZOGEN
 62
           1
  5
A4
 10
678.609817504883
 20
-230.76801743571
 30
0.0
 40
4.0
 50
89.999975183722
 51
110.487195901065
  0
ARC
  8
ZEICHNUNG
  6
AUSGEZOGEN
 62
           1
  5
A5
 10
678.609817504883
 20
-230.76801743571
 30
0.0
 40
4.0
 50
249.512804098933
 51
270.000024816278
  0
LINE
  8
BEMAßUNG
  6
STRICHPUNKT
 62
           2
  5
A6
 10
691.609817504883
 20
-246.473698282878
 30
0.0
 11
691.609817504883
 21
-205.598477030436
 31
0.0
  0
LINE
  8
BEMAßUNG
  6
STRICHPUNKT
 62
           2
  5
A7
 10
721.109817504883
 20
-225.0
 30
0.0
 11
721.109817504883
 21
-205.598477030436
 31
0.0
  0
LINE
  8
BEMAßUNG
  6
STRICHPUNKT
 62
           2
  5
A8
 10
662.109817504883
 20
-225.0
 30
0.0
 11
662.109817504883
 21
-205.598477030436
 31
0.0
  0
LINE
  8
UNSICHTBARE
  6
VERDECKT
 62
           2
  5
A9
 10
687.609817504883
 20
-222.76801743571
 30
0.0
 11
687.609817504883
 21
-208.76801743571
 31
0.0
  0
LINE
  8
UNSICHTBARE
  6
VERDECKT
 62
           2
  5
AA
 10
695.609817504883
 20
-222.76801743571
 30
0.0
 11
695.609817504883
 21
-208.76801743571
 31
0.0
  0
LINE
  8
UNSICHTBARE
  6
VERDECKT
 62
           2
  5
AB
 10
688.609817504883
 20
-222.76801743571
 30
0.0
 11
688.609817504883
 21
-208.76801743571
 31
0.0
  0
LINE
  8
UNSICHTBARE
  6
VERDECKT
 62
           2
  5
AC
 10
694.609817504883
 20
-222.76801743571
 30
0.0
 11
694.609817504883
 21
-208.76801743571
 31
0.0
  0
LINE
  8
BEMAßUNG
  6
STRICHPUNKT
 62
           2
  5
AD
 10
719.109817504883
 20
-240.0
 30
0.0
 11
719.109817504883
 21
-220.0
 31
0.0
  0
LINE
  8
BEMAßUNG
  6
STRICHPUNKT
 62
           2
  5
AE
 10
664.109817504883
 20
-240.0
 30
0.0
 11
664.109817504883
 21
-220.0
 31
0.0
  0
LINE
  8
ZEICHNUNG
  6
AUSGEZOGEN
 62
           1
  5
AF
 10
680.609817504883
 20
-244.268021250407
 30
0.0
 11
680.609817504883
 21
-238.077414815267
 31
0.0
  0
LINE
  8
ZEICHNUNG
  6
AUSGEZOGEN
 62
           1
  5
B0
 10
702.609817504883
 20
-244.268021250407
 30
0.0
 11
702.609817504883
 21
-238.077414815267
 31
0.0
  0
LINE
  8
ZEICHNUNG
  6
AUSGEZOGEN
 62
           1
  5
B1
 10
731.609817504883
 20
-222.76801743571
 30
0.0
 11
651.609817504883
 21
-222.76801743571
 31
0.0
  0
LINE
  8
ZEICHNUNG
  6
AUSGEZOGEN
 62
           1
  5
B2
 10
652.009811401367
 20
-226.068020487467
 30
0.0
 11
676.009811401367
 21
-226.068020487467
 31
0.0
  0
LINE
  8
ZEICHNUNG
  6
AUSGEZOGEN
 62
           1
  5
B3
 10
652.009811401367
 20
-227.72828582557
 30
0.0
 11
676.009811401367
 21
-227.72828582557
 31
0.0
  0
LINE
  8
ZEICHNUNG
  6
AUSGEZOGEN
 62
           1
  5
B4
 10
676.009811401367
 20
-233.807749045849
 30
0.0
 11
652.009811401367
 21
-233.807749045849
 31
0.0
  0
LINE
  8
ZEICHNUNG
  6
AUSGEZOGEN
 62
           1
  5
B5
 10
652.009811401367
 20
-235.468014383952
 30
0.0
 11
676.009811401367
 21
-235.468014383952
 31
0.0
  0
LINE
  8
ZEICHNUNG
  6
AUSGEZOGEN
 62
           1
  5
B6
 10
658.609817504883
 20
-238.76801743571
 30
0.0
 11
669.609817504883
 21
-238.76801743571
 31
0.0
  0
LINE
  8
ZEICHNUNG
  6
AUSGEZOGEN
 62
           1
  5
B7
 10
658.109817504883
 20
-238.26801743571
 30
0.0
 11
658.109817504883
 21
-236.26801743571
 31
0.0
  0
LINE
  8
ZEICHNUNG
  6
AUSGEZOGEN
 62
           1
  5
B8
 10
670.109817504883
 20
-238.26801743571
 30
0.0
 11
670.109817504883
 21
-236.26801743571
 31
0.0
  0
LINE
  8
ZEICHNUNG
  6
AUSGEZOGEN
 62
           1
  5
B9
 10
658.109817504883
 20
-238.26801743571
 30
0.0
 11
658.609817504883
 21
-238.76801743571
 31
0.0
  0
LINE
  8
ZEICHNUNG
  6
AUSGEZOGEN
 62
           1
  5
BA
 10
670.109817504883
 20
-238.26801743571
 30
0.0
 11
669.609817504883
 21
-238.76801743571
 31
0.0
  0
LINE
  8
ZEICHNUNG
  6
AUSGEZOGEN
 62
           1
  5
BB
 10
658.109817504883
 20
-238.26801743571
 30
0.0
 11
670.109817504883
 21
-238.26801743571
 31
0.0
  0
LINE
  8
ZEICHNUNG
  6
AUSGEZOGEN
 62
           1
  5
BC
 10
659.109817504883
 20
-222.76801743571
 30
0.0
 11
659.109817504883
 21
-208.76801743571
 31
0.0
  0
LINE
  8
ZEICHNUNG
  6
AUSGEZOGEN
 62
           1
  5
BD
 10
665.109817504883
 20
-222.76801743571
 30
0.0
 11
665.109817504883
 21
-208.76801743571
 31
0.0
  0
LINE
  8
ZEICHNUNG
  6
AUSGEZOGEN
 62
           1
  5
BE
 10
718.109817504883
 20
-222.76801743571
 30
0.0
 11
718.109817504883
 21
-208.76801743571
 31
0.0
  0
LINE
  8
ZEICHNUNG
  6
AUSGEZOGEN
 62
           1
  5
BF
 10
724.109817504883
 20
-222.76801743571
 30
0.0
 11
724.109817504883
 21
-208.76801743571
 31
0.0
  0
LINE
  8
MITTELLINIEN
  6
AUSGEZOGEN
 62
           2
  5
C0
 10
658.109817504883
 20
-222.76801743571
 30
0.0
 11
658.109817504883
 21
-208.76801743571
 31
0.0
  0
LINE
  8
MITTELLINIEN
  6
AUSGEZOGEN
 62
           2
  5
C1
 10
666.109817504883
 20
-222.76801743571
 30
0.0
 11
666.109817504883
 21
-208.76801743571
 31
0.0
  0
LINE
  8
MITTELLINIEN
  6
AUSGEZOGEN
 62
           2
  5
C2
 10
717.109817504883
 20
-222.76801743571
 30
0.0
 11
717.109817504883
 21
-208.76801743571
 31
0.0
  0
LINE
  8
MITTELLINIEN
  6
AUSGEZOGEN
 62
           2
  5
C3
 10
725.109817504883
 20
-222.76801743571
 30
0.0
 11
725.109817504883
 21
-208.76801743571
 31
0.0
  0
INSERT
  8
MITTELLINIEN
  6
AUSGEZOGEN
 62
           2
  5
C4
  2
*X3
 10
0.0
 20
0.0
 30
0.0
  0
INSERT
  8
MITTELLINIEN
  6
AUSGEZOGEN
 62
           2
  5
C5
  2
*X4
 10
0.0
 20
0.0
 30
0.0
  0
LINE
  8
ZEICHNUNG
  6
AUSGEZOGEN
 62
           1
  5
C6
 10
449.109817504883
 20
-222.76801743571
 30
0.0
 11
539.109817504883
 21
-222.76801743571
 31
0.0
  0
LINE
  8
ZEICHNUNG
  6
AUSGEZOGEN
 62
           1
  5
C7
 10
731.209823608398
 20
-227.728283548991
 30
0.0
 11
731.209823608398
 21
-226.068020487467
 31
0.0
  0
LINE
  8
ZEICHNUNG
  6
AUSGEZOGEN
 62
           1
  5
C8
 10
731.209823608398
 20
-235.468014383952
 30
0.0
 11
731.209823608398
 21
-233.807751322428
 31
0.0
  0
LINE
  8
ZEICHNUNG
  6
AUSGEZOGEN
 62
           1
  5
C9
 10
719.109817504883
 20
-225.26801743571
 30
0.0
 11
730.409820556641
 21
-225.26801743571
 31
0.0
  0
LINE
  8
ZEICHNUNG
  6
AUSGEZOGEN
 62
           1
  5
CA
 10
708.009826660156
 20
-225.26801743571
 30
0.0
 11
719.109817504883
 21
-225.26801743571
 31
0.0
  0
LINE
  8
ZEICHNUNG
  6
AUSGEZOGEN
 62
           1
  5
CB
 10
730.409820556641
 20
-236.26801743571
 30
0.0
 11
708.009826660156
 21
-236.26801743571
 31
0.0
  0
ARC
  8
ZEICHNUNG
  6
AUSGEZOGEN
 62
           1
  5
CC
 10
733.809829711914
 20
-230.76801743571
 30
0.0
 40
4.0
 50
130.54171571044
 51
229.458284289559
  0
LINE
  8
ZEICHNUNG
  6
AUSGEZOGEN
 62
           1
  5
CD
 10
730.409820556641
 20
-225.26801743571
 30
0.0
 11
731.209823608398
 21
-226.068020487467
 31
0.0
  0
LINE
  8
ZEICHNUNG
  6
AUSGEZOGEN
 62
           1
  5
CE
 10
731.209823608398
 20
-235.468014383952
 30
0.0
 11
730.409820556641
 21
-236.26801743571
 31
0.0
  0
LINE
  8
ZEICHNUNG
  6
AUSGEZOGEN
 62
           1
  5
CF
 10
708.009826660156
 20
-236.26801743571
 30
0.0
 11
707.209823608398
 21
-235.468014383952
 31
0.0
  0
LINE
  8
ZEICHNUNG
  6
AUSGEZOGEN
 62
           1
  5
D0
 10
707.209823608398
 20
-226.068020487467
 30
0.0
 11
708.009826660156
 21
-225.26801743571
 31
0.0
  0
LINE
  8
ZEICHNUNG
  6
AUSGEZOGEN
 62
           1
  5
D1
 10
713.309829711914
 20
-225.26801743571
 30
0.0
 11
713.309829711914
 21
-223.76801743571
 31
0.0
  0
LINE
  8
ZEICHNUNG
  6
AUSGEZOGEN
 62
           1
  5
D2
 10
725.109817504883
 20
-225.26801743571
 30
0.0
 11
725.109817504883
 21
-223.76801743571
 31
0.0
  0
LINE
  8
ZEICHNUNG
  6
AUSGEZOGEN
 62
           1
  5
D3
 10
726.109817504883
 20
-223.76801743571
 30
0.0
 11
712.109817504883
 21
-223.76801743571
 31
0.0
  0
LINE
  8
ZEICHNUNG
  6
AUSGEZOGEN
 62
           1
  5
D4
 10
731.209823608398
 20
-226.068020487467
 30
0.0
 11
707.209823608398
 21
-226.068020487467
 31
0.0
  0
LINE
  8
ZEICHNUNG
  6
AUSGEZOGEN
 62
           1
  5
D5
 10
731.209823608398
 20
-227.72828582557
 30
0.0
 11
707.209823608398
 21
-227.72828582557
 31
0.0
  0
LINE
  8
ZEICHNUNG
  6
AUSGEZOGEN
 62
           1
  5
D6
 10
707.209823608398
 20
-233.807749045849
 30
0.0
 11
731.209823608398
 21
-233.807749045849
 31
0.0
  0
LINE
  8
ZEICHNUNG
  6
AUSGEZOGEN
 62
           1
  5
D7
 10
731.209823608398
 20
-235.468014383952
 30
0.0
 11
707.209823608398
 21
-235.468014383952
 31
0.0
  0
LINE
  8
ZEICHNUNG
  6
AUSGEZOGEN
 62
           1
  5
D8
 10
724.609817504883
 20
-238.76801743571
 30
0.0
 11
713.609817504883
 21
-238.76801743571
 31
0.0
  0
LINE
  8
ZEICHNUNG
  6
AUSGEZOGEN
 62
           1
  5
D9
 10
725.109817504883
 20
-238.26801743571
 30
0.0
 11
725.109817504883
 21
-236.26801743571
 31
0.0
  0
LINE
  8
ZEICHNUNG
  6
AUSGEZOGEN
 62
           1
  5
DA
 10
713.109817504883
 20
-238.26801743571
 30
0.0
 11
713.109817504883
 21
-236.26801743571
 31
0.0
  0
LINE
  8
ZEICHNUNG
  6
AUSGEZOGEN
 62
           1
  5
DB
 10
725.109817504883
 20
-238.26801743571
 30
0.0
 11
724.609817504883
 21
-238.76801743571
 31
0.0
  0
LINE
  8
ZEICHNUNG
  6
AUSGEZOGEN
 62
           1
  5
DC
 10
713.109817504883
 20
-238.26801743571
 30
0.0
 11
713.609817504883
 21
-238.76801743571
 31
0.0
  0
LINE
  8
ZEICHNUNG
  6
AUSGEZOGEN
 62
           1
  5
DD
 10
725.109817504883
 20
-238.26801743571
 30
0.0
 11
713.109817504883
 21
-238.26801743571
 31
0.0
  0
LINE
  8
UNSICHTBARE
  6
VERDECKT
 62
           2
  5
DE
 10
456.109817504883
 20
-222.76801743571
 30
0.0
 11
456.109817504883
 21
-208.76801743571
 31
0.0
  0
LINE
  8
UNSICHTBARE
  6
VERDECKT
 62
           2
  5
DF
 10
462.109817504883
 20
-222.76801743571
 30
0.0
 11
462.109817504883
 21
-208.76801743571
 31
0.0
  0
LINE
  8
UNSICHTBARE
  6
VERDECKT
 62
           2
  5
E0
 10
455.109817504883
 20
-222.76801743571
 30
0.0
 11
455.109817504883
 21
-208.76801743571
 31
0.0
  0
LINE
  8
UNSICHTBARE
  6
VERDECKT
 62
           2
  5
E1
 10
463.109817504883
 20
-222.76801743571
 30
0.0
 11
463.109817504883
 21
-208.76801743571
 31
0.0
  0
LINE
  8
UNSICHTBARE
  6
VERDECKT
 62
           2
  5
E2
 10
526.109817504883
 20
-222.76801743571
 30
0.0
 11
526.109817504883
 21
-208.76801743571
 31
0.0
  0
LINE
  8
UNSICHTBARE
  6
VERDECKT
 62
           2
  5
E3
 10
532.109817504883
 20
-222.76801743571
 30
0.0
 11
532.109817504883
 21
-208.76801743571
 31
0.0
  0
LINE
  8
UNSICHTBARE
  6
VERDECKT
 62
           2
  5
E4
 10
525.109817504883
 20
-222.76801743571
 30
0.0
 11
525.109817504883
 21
-208.76801743571
 31
0.0
  0
LINE
  8
UNSICHTBARE
  6
VERDECKT
 62
           2
  5
E5
 10
533.109817504883
 20
-222.76801743571
 30
0.0
 11
533.109817504883
 21
-208.76801743571
 31
0.0
  0
LINE
  8
ZEICHNUNG
  6
AUSGEZOGEN
 62
           1
  5
E6
 10
536.009811401367
 20
-227.728283548991
 30
0.0
 11
536.009811401367
 21
-226.068020487467
 31
0.0
  0
LINE
  8
ZEICHNUNG
  6
AUSGEZOGEN
 62
           1
  5
E7
 10
536.009811401367
 20
-235.468014383952
 30
0.0
 11
536.009811401367
 21
-233.807751322428
 31
0.0
  0
LINE
  8
ZEICHNUNG
  6
AUSGEZOGEN
 62
           1
  5
E8
 10
512.009811401367
 20
-227.728283548991
 30
0.0
 11
512.009811401367
 21
-226.068020487467
 31
0.0
  0
LINE
  8
ZEICHNUNG
  6
AUSGEZOGEN
 62
           1
  5
E9
 10
512.009811401367
 20
-235.468014383952
 30
0.0
 11
512.009811401367
 21
-233.807751322428
 31
0.0
  0
LINE
  8
ZEICHNUNG
  6
AUSGEZOGEN
 62
           1
  5
EA
 10
524.109817504883
 20
-225.26801743571
 30
0.0
 11
512.809814453125
 21
-225.26801743571
 31
0.0
  0
LINE
  8
ZEICHNUNG
  6
AUSGEZOGEN
 62
           1
  5
EB
 10
535.209808349609
 20
-225.26801743571
 30
0.0
 11
524.109817504883
 21
-225.26801743571
 31
0.0
  0
LINE
  8
ZEICHNUNG
  6
AUSGEZOGEN
 62
           1
  5
EC
 10
512.809814453125
 20
-236.26801743571
 30
0.0
 11
535.209808349609
 21
-236.26801743571
 31
0.0
  0
ARC
  8
ZEICHNUNG
  6
AUSGEZOGEN
 62
           1
  5
ED
 10
509.409805297852
 20
-230.76801743571
 30
0.0
 40
4.0
 50
310.54171571044
 51
49.45828428956
  0
LINE
  8
ZEICHNUNG
  6
AUSGEZOGEN
 62
           1
  5
EE
 10
512.809814453125
 20
-225.26801743571
 30
0.0
 11
512.009811401367
 21
-226.068020487467
 31
0.0
  0
LINE
  8
ZEICHNUNG
  6
AUSGEZOGEN
 62
           1
  5
EF
 10
512.009811401367
 20
-235.468014383952
 30
0.0
 11
512.809814453125
 21
-236.26801743571
 31
0.0
  0
LINE
  8
ZEICHNUNG
  6
AUSGEZOGEN
 62
           1
  5
F0
 10
535.209808349609
 20
-236.26801743571
 30
0.0
 11
536.009811401367
 21
-235.468014383952
 31
0.0
  0
LINE
  8
ZEICHNUNG
  6
AUSGEZOGEN
 62
           1
  5
F1
 10
536.009811401367
 20
-226.068020487467
 30
0.0
 11
535.209808349609
 21
-225.26801743571
 31
0.0
  0
LINE
  8
ZEICHNUNG
  6
AUSGEZOGEN
 62
           1
  5
F2
 10
529.909805297852
 20
-225.26801743571
 30
0.0
 11
529.909805297852
 21
-223.76801743571
 31
0.0
  0
LINE
  8
ZEICHNUNG
  6
AUSGEZOGEN
 62
           1
  5
F3
 10
518.109817504883
 20
-225.26801743571
 30
0.0
 11
518.109817504883
 21
-223.76801743571
 31
0.0
  0
LINE
  8
ZEICHNUNG
  6
AUSGEZOGEN
 62
           1
  5
F4
 10
517.109817504883
 20
-223.76801743571
 30
0.0
 11
531.109817504883
 21
-223.76801743571
 31
0.0
  0
ARC
  8
ZEICHNUNG
  6
AUSGEZOGEN
 62
           1
  5
F5
 10
538.609817504883
 20
-230.76801743571
 30
0.0
 40
4.0
 50
130.541662662789
 51
229.458337337211
  0
LINE
  8
ZEICHNUNG
  6
AUSGEZOGEN
 62
           1
  5
F6
 10
512.009811401367
 20
-226.068020487467
 30
0.0
 11
536.009811401367
 21
-226.068020487467
 31
0.0
  0
LINE
  8
ZEICHNUNG
  6
AUSGEZOGEN
 62
           1
  5
F7
 10
512.009811401367
 20
-227.72828582557
 30
0.0
 11
536.009811401367
 21
-227.72828582557
 31
0.0
  0
LINE
  8
ZEICHNUNG
  6
AUSGEZOGEN
 62
           1
  5
F8
 10
536.009811401367
 20
-233.807749045849
 30
0.0
 11
512.009811401367
 21
-233.807749045849
 31
0.0
  0
LINE
  8
ZEICHNUNG
  6
AUSGEZOGEN
 62
           1
  5
F9
 10
512.009811401367
 20
-235.468014383952
 30
0.0
 11
536.009811401367
 21
-235.468014383952
 31
0.0
  0
LINE
  8
ZEICHNUNG
  6
AUSGEZOGEN
 62
           1
  5
FA
 10
518.609817504883
 20
-238.76801743571
 30
0.0
 11
529.609817504883
 21
-238.76801743571
 31
0.0
  0
LINE
  8
ZEICHNUNG
  6
AUSGEZOGEN
 62
           1
  5
FB
 10
518.109817504883
 20
-238.26801743571
 30
0.0
 11
518.109817504883
 21
-236.26801743571
 31
0.0
  0
LINE
  8
ZEICHNUNG
  6
AUSGEZOGEN
 62
           1
  5
FC
 10
530.109817504883
 20
-238.26801743571
 30
0.0
 11
530.109817504883
 21
-236.26801743571
 31
0.0
  0
LINE
  8
ZEICHNUNG
  6
AUSGEZOGEN
 62
           1
  5
FD
 10
518.109817504883
 20
-238.26801743571
 30
0.0
 11
518.609817504883
 21
-238.76801743571
 31
0.0
  0
LINE
  8
ZEICHNUNG
  6
AUSGEZOGEN
 62
           1
  5
FE
 10
530.109817504883
 20
-238.26801743571
 30
0.0
 11
529.609817504883
 21
-238.76801743571
 31
0.0
  0
LINE
  8
ZEICHNUNG
  6
AUSGEZOGEN
 62
           1
  5
FF
 10
518.109817504883
 20
-238.26801743571
 30
0.0
 11
530.109817504883
 21
-238.26801743571
 31
0.0
  0
LINE
  8
ZEICHNUNG
  6
AUSGEZOGEN
 62
           1
  5
100
 10
476.009811401367
 20
-227.728283548991
 30
0.0
 11
476.009811401367
 21
-226.068020487467
 31
0.0
  0
LINE
  8
ZEICHNUNG
  6
AUSGEZOGEN
 62
           1
  5
101
 10
476.009811401367
 20
-235.468014383952
 30
0.0
 11
476.009811401367
 21
-233.807751322428
 31
0.0
  0
LINE
  8
ZEICHNUNG
  6
AUSGEZOGEN
 62
           1
  5
102
 10
452.009811401367
 20
-227.728283548991
 30
0.0
 11
452.009811401367
 21
-226.068020487467
 31
0.0
  0
LINE
  8
ZEICHNUNG
  6
AUSGEZOGEN
 62
           1
  5
103
 10
452.009811401367
 20
-235.468014383952
 30
0.0
 11
452.009811401367
 21
-233.807751322428
 31
0.0
  0
LINE
  8
ZEICHNUNG
  6
AUSGEZOGEN
 62
           1
  5
104
 10
464.109817504883
 20
-225.26801743571
 30
0.0
 11
452.809814453125
 21
-225.26801743571
 31
0.0
  0
LINE
  8
ZEICHNUNG
  6
AUSGEZOGEN
 62
           1
  5
105
 10
475.209808349609
 20
-225.26801743571
 30
0.0
 11
464.109817504883
 21
-225.26801743571
 31
0.0
  0
LINE
  8
ZEICHNUNG
  6
AUSGEZOGEN
 62
           1
  5
106
 10
452.809814453125
 20
-236.26801743571
 30
0.0
 11
475.209808349609
 21
-236.26801743571
 31
0.0
  0
ARC
  8
ZEICHNUNG
  6
AUSGEZOGEN
 62
           1
  5
107
 10
449.409805297852
 20
-230.76801743571
 30
0.0
 40
4.0
 50
310.54171571044
 51
49.45828428956
  0
LINE
  8
ZEICHNUNG
  6
AUSGEZOGEN
 62
           1
  5
108
 10
452.809814453125
 20
-225.26801743571
 30
0.0
 11
452.009811401367
 21
-226.068020487467
 31
0.0
  0
LINE
  8
ZEICHNUNG
  6
AUSGEZOGEN
 62
           1
  5
109
 10
452.009811401367
 20
-235.468014383952
 30
0.0
 11
452.809814453125
 21
-236.26801743571
 31
0.0
  0
LINE
  8
ZEICHNUNG
  6
AUSGEZOGEN
 62
           1
  5
10A
 10
475.209808349609
 20
-236.26801743571
 30
0.0
 11
476.009811401367
 21
-235.468014383952
 31
0.0
  0
LINE
  8
ZEICHNUNG
  6
AUSGEZOGEN
 62
           1
  5
10B
 10
476.009811401367
 20
-226.068020487467
 30
0.0
 11
475.209808349609
 21
-225.26801743571
 31
0.0
  0
LINE
  8
ZEICHNUNG
  6
AUSGEZOGEN
 62
           1
  5
10C
 10
469.909805297852
 20
-225.26801743571
 30
0.0
 11
469.909805297852
 21
-223.76801743571
 31
0.0
  0
LINE
  8
ZEICHNUNG
  6
AUSGEZOGEN
 62
           1
  5
10D
 10
458.109817504883
 20
-225.26801743571
 30
0.0
 11
458.109817504883
 21
-223.76801743571
 31
0.0
  0
LINE
  8
ZEICHNUNG
  6
AUSGEZOGEN
 62
           1
  5
10E
 10
457.109817504883
 20
-223.76801743571
 30
0.0
 11
471.109817504883
 21
-223.76801743571
 31
0.0
  0
ARC
  8
ZEICHNUNG
  6
AUSGEZOGEN
 62
           1
  5
10F
 10
478.609817504883
 20
-230.76801743571
 30
0.0
 40
4.0
 50
130.541662662789
 51
229.458337337211
  0
LINE
  8
ZEICHNUNG
  6
AUSGEZOGEN
 62
           1
  5
110
 10
452.009811401367
 20
-226.068020487467
 30
0.0
 11
476.009811401367
 21
-226.068020487467
 31
0.0
  0
LINE
  8
ZEICHNUNG
  6
AUSGEZOGEN
 62
           1
  5
111
 10
452.009811401367
 20
-227.72828582557
 30
0.0
 11
476.009811401367
 21
-227.72828582557
 31
0.0
  0
LINE
  8
ZEICHNUNG
  6
AUSGEZOGEN
 62
           1
  5
112
 10
476.009811401367
 20
-233.807749045849
 30
0.0
 11
452.009811401367
 21
-233.807749045849
 31
0.0
  0
LINE
  8
ZEICHNUNG
  6
AUSGEZOGEN
 62
           1
  5
113
 10
452.009811401367
 20
-235.468014383952
 30
0.0
 11
476.009811401367
 21
-235.468014383952
 31
0.0
  0
LINE
  8
ZEICHNUNG
  6
AUSGEZOGEN
 62
           1
  5
114
 10
458.609817504883
 20
-238.76801743571
 30
0.0
 11
469.609817504883
 21
-238.76801743571
 31
0.0
  0
LINE
  8
ZEICHNUNG
  6
AUSGEZOGEN
 62
           1
  5
115
 10
458.109817504883
 20
-238.26801743571
 30
0.0
 11
458.109817504883
 21
-236.26801743571
 31
0.0
  0
LINE
  8
ZEICHNUNG
  6
AUSGEZOGEN
 62
           1
  5
116
 10
470.109817504883
 20
-238.26801743571
 30
0.0
 11
470.109817504883
 21
-236.26801743571
 31
0.0
  0
LINE
  8
ZEICHNUNG
  6
AUSGEZOGEN
 62
           1
  5
117
 10
458.109817504883
 20
-238.26801743571
 30
0.0
 11
458.609817504883
 21
-238.76801743571
 31
0.0
  0
LINE
  8
ZEICHNUNG
  6
AUSGEZOGEN
 62
           1
  5
118
 10
470.109817504883
 20
-238.26801743571
 30
0.0
 11
469.609817504883
 21
-238.76801743571
 31
0.0
  0
LINE
  8
ZEICHNUNG
  6
AUSGEZOGEN
 62
           1
  5
119
 10
458.109817504883
 20
-238.26801743571
 30
0.0
 11
470.109817504883
 21
-238.26801743571
 31
0.0
  0
LINE
  8
ZEICHNUNG
  6
AUSGEZOGEN
 62
           1
  5
11A
 10
657.109817504883
 20
-223.76801743571
 30
0.0
 11
657.109817504883
 21
-222.76801743571
 31
0.0
  0
LINE
  8
ZEICHNUNG
  6
AUSGEZOGEN
 62
           1
  5
11B
 10
671.109817504883
 20
-223.76801743571
 30
0.0
 11
671.109817504883
 21
-222.76801743571
 31
0.0
  0
LINE
  8
ZEICHNUNG
  6
AUSGEZOGEN
 62
           1
  5
11C
 10
712.109817504883
 20
-223.76801743571
 30
0.0
 11
712.109817504883
 21
-222.76801743571
 31
0.0
  0
LINE
  8
ZEICHNUNG
  6
AUSGEZOGEN
 62
           1
  5
11D
 10
726.109817504883
 20
-223.76801743571
 30
0.0
 11
726.109817504883
 21
-222.76801743571
 31
0.0
  0
LINE
  8
ZEICHNUNG
  6
AUSGEZOGEN
 62
           1
  5
11E
 10
517.109817504883
 20
-223.76801743571
 30
0.0
 11
517.109817504883
 21
-222.76801743571
 31
0.0
  0
LINE
  8
ZEICHNUNG
  6
AUSGEZOGEN
 62
           1
  5
11F
 10
531.109817504883
 20
-223.76801743571
 30
0.0
 11
531.109817504883
 21
-222.76801743571
 31
0.0
  0
LINE
  8
ZEICHNUNG
  6
AUSGEZOGEN
 62
           1
  5
120
 10
457.109817504883
 20
-223.76801743571
 30
0.0
 11
457.109817504883
 21
-222.76801743571
 31
0.0
  0
LINE
  8
ZEICHNUNG
  6
AUSGEZOGEN
 62
           1
  5
121
 10
471.109817504883
 20
-223.76801743571
 30
0.0
 11
471.109817504883
 21
-222.76801743571
 31
0.0
  0
INSERT
  8
MITTELLINIEN
  6
AUSGEZOGEN
 62
           2
  5
122
  2
*X5
 10
0.0
 20
0.0
 30
0.0
  0
LINE
  8
ZEICHNUNG
  6
AUSGEZOGEN
 62
           1
  5
123
 10
371.109817504883
 20
-244.268021250407
 30
0.0
 11
566.81381311305
 21
-244.268021250407
 31
0.0
  0
LINE
  8
ZEICHNUNG
  6
AUSGEZOGEN
 62
           1
  5
124
 10
529.909805297852
 20
-224.26801743571
 30
0.0
 11
568.563586717311
 21
-224.26801743571
 31
0.0
  0
LINE
  8
ZEICHNUNG
  6
AUSGEZOGEN
 62
           1
  5
125
 10
469.909805297852
 20
-224.26801743571
 30
0.0
 11
518.109817504883
 21
-224.26801743571
 31
0.0
  0
LINE
  8
ZEICHNUNG
  6
AUSGEZOGEN
 62
           1
  5
126
 10
371.109817504883
 20
-224.26801743571
 30
0.0
 11
458.109817504883
 21
-224.26801743571
 31
0.0
  0
LINE
  8
ZEICHNUNG
  6
AUSGEZOGEN
 62
           1
  5
127
 10
535.709808349609
 20
-225.76801743571
 30
0.0
 11
568.432353722022
 21
-225.76801743571
 31
0.0
  0
LINE
  8
ZEICHNUNG
  6
AUSGEZOGEN
 62
           1
  5
128
 10
475.709808349609
 20
-225.76801743571
 30
0.0
 11
512.309814453125
 21
-225.76801743571
 31
0.0
  0
LINE
  8
ZEICHNUNG
  6
AUSGEZOGEN
 62
           1
  5
129
 10
371.109817504883
 20
-225.76801743571
 30
0.0
 11
452.309814453125
 21
-225.76801743571
 31
0.0
  0
LINE
  8
ZEICHNUNG
  6
AUSGEZOGEN
 62
           1
  5
12A
 10
535.709808349609
 20
-235.76801743571
 30
0.0
 11
567.557467086763
 21
-235.76801743571
 31
0.0
  0
LINE
  8
ZEICHNUNG
  6
AUSGEZOGEN
 62
           1
  5
12B
 10
475.709808349609
 20
-235.76801743571
 30
0.0
 11
512.309814453125
 21
-235.76801743571
 31
0.0
  0
LINE
  8
ZEICHNUNG
  6
AUSGEZOGEN
 62
           1
  5
12C
 10
371.109817504883
 20
-235.76801743571
 30
0.0
 11
452.309814453125
 21
-235.76801743571
 31
0.0
  0
LINE
  8
ZEICHNUNG
  6
AUSGEZOGEN
 62
           1
  5
12D
 10
536.009811401367
 20
-226.860249186198
 30
0.0
 11
568.336795825911
 21
-226.860249186198
 31
0.0
  0
LINE
  8
ZEICHNUNG
  6
AUSGEZOGEN
 62
           1
  5
12E
 10
476.009811401367
 20
-226.860249186198
 30
0.0
 11
512.009811401367
 21
-226.860249186198
 31
0.0
  0
LINE
  8
ZEICHNUNG
  6
AUSGEZOGEN
 62
           1
  5
12F
 10
371.109817504883
 20
-226.860249186198
 30
0.0
 11
452.009811401367
 21
-226.860249186198
 31
0.0
  0
LINE
  8
ZEICHNUNG
  6
AUSGEZOGEN
 62
           1
  5
130
 10
536.009811401367
 20
-234.675785685221
 30
0.0
 11
567.653024982874
 21
-234.675785685221
 31
0.0
  0
LINE
  8
ZEICHNUNG
  6
AUSGEZOGEN
 62
           1
  5
131
 10
476.009811401367
 20
-234.675785685221
 30
0.0
 11
512.009811401367
 21
-234.675785685221
 31
0.0
  0
LINE
  8
ZEICHNUNG
  6
AUSGEZOGEN
 62
           1
  5
132
 10
371.109817504883
 20
-234.675785685221
 30
0.0
 11
452.009811401367
 21
-234.675785685221
 31
0.0
  0
LINE
  8
ZEICHNUNG
  6
AUSGEZOGEN
 62
           1
  5
133
 10
371.109817504883
 20
-244.268021250407
 30
0.0
 11
371.109817504883
 21
-224.26801743571
 31
0.0
  0
LINE
  8
BEMAßUNG
  6
STRICHPUNKT
 62
           2
  5
134
 10
431.609817504883
 20
-250.0
 30
0.0
 11
431.609817504883
 21
-220.0
 31
0.0
  0
LINE
  8
BEMAßUNG
  6
STRICHPUNKT
 62
           2
  5
135
 10
556.609817504883
 20
-250.0
 30
0.0
 11
556.609817504883
 21
-220.0
 31
0.0
  0
LINE
  8
BEMAßUNG
  6
STRICHPUNKT
 62
           2
  5
136
 10
566.41630318491
 20
-248.811580519907
 30
0.0
 11
568.983045232445
 21
-219.473584668891
 31
0.0
  0
LINE
  8
ZEICHNUNG
  6
AUSGEZOGEN
 62
           1
  5
137
 10
371.109817504883
 20
-315.768021250407
 30
0.0
 11
371.109817504883
 21
-349.768021250407
 31
0.0
  0
LINE
  8
ZEICHNUNG
  6
AUSGEZOGEN
 62
           1
  5
138
 10
539.109817504883
 20
-320.368021250407
 30
0.0
 11
719.794792093174
 21
-320.368021250407
 31
0.0
  0
LINE
  8
ZEICHNUNG
  6
AUSGEZOGEN
 62
           1
  5
139
 10
371.109817504883
 20
-320.368021250407
 30
0.0
 11
449.109817504883
 21
-320.368021250407
 31
0.0
  0
LINE
  8
ZEICHNUNG
  6
AUSGEZOGEN
 62
           1
  5
13A
 10
539.109817504883
 20
-317.768021250407
 30
0.0
 11
720.022262618342
 21
-317.768021250407
 31
0.0
  0
LINE
  8
ZEICHNUNG
  6
AUSGEZOGEN
 62
           1
  5
13B
 10
371.109817504883
 20
-317.768021250407
 30
0.0
 11
449.109817504883
 21
-317.768021250407
 31
0.0
  0
LINE
  8
ZEICHNUNG
  6
AUSGEZOGEN
 62
           1
  5
13C
 10
539.109817504883
 20
-315.768021250407
 30
0.0
 11
720.197239945394
 21
-315.768021250407
 31
0.0
  0
LINE
  8
ZEICHNUNG
  6
AUSGEZOGEN
 62
           1
  5
13D
 10
371.109817504883
 20
-315.768021250407
 30
0.0
 11
449.109817504883
 21
-315.768021250407
 31
0.0
  0
LINE
  8
ZEICHNUNG
  6
AUSGEZOGEN
 62
           1
  5
13E
 10
371.109817504883
 20
-345.168021250407
 30
0.0
 11
449.109817504883
 21
-345.168021250407
 31
0.0
  0
LINE
  8
ZEICHNUNG
  6
AUSGEZOGEN
 62
           1
  5
13F
 10
371.109817504883
 20
-347.768021250407
 30
0.0
 11
449.109817504883
 21
-347.768021250407
 31
0.0
  0
LINE
  8
ZEICHNUNG
  6
AUSGEZOGEN
 62
           1
  5
140
 10
371.109817504883
 20
-349.768021250407
 30
0.0
 11
449.109817504883
 21
-349.768021250407
 31
0.0
  0
LINE
  8
BEMAßUNG
  6
STRICHPUNKT
 62
           2
  5
141
 10
716.827441495813
 20
-354.284993778881
 30
0.0
 11
720.616698460527
 21
-310.973588483588
 31
0.0
  0
LINE
  8
ZEICHNUNG
  6
AUSGEZOGEN
 62
           1
  5
142
 10
539.109817504883
 20
-345.168021250407
 30
0.0
 11
717.625073237732
 21
-345.168021250407
 31
0.0
  0
LINE
  8
ZEICHNUNG
  6
AUSGEZOGEN
 62
           1
  5
143
 10
539.109817504883
 20
-347.768021250407
 30
0.0
 11
717.397602712564
 21
-347.768021250407
 31
0.0
  0
LINE
  8
ZEICHNUNG
  6
AUSGEZOGEN
 62
           1
  5
144
 10
539.109817504883
 20
-349.768021250407
 30
0.0
 11
717.222625385512
 21
-349.768021250407
 31
0.0
  0
LINE
  8
ZEICHNUNG
  6
AUSGEZOGEN
 62
           1
  5
145
 10
539.109817504883
 20
-326.518021250407
 30
0.0
 11
719.25673681249
 21
-326.518021250407
 31
0.0
  0
LINE
  8
ZEICHNUNG
  6
AUSGEZOGEN
 62
           1
  5
146
 10
371.109817504883
 20
-326.518021250407
 30
0.0
 11
449.109817504883
 21
-326.518021250407
 31
0.0
  0
LINE
  8
ZEICHNUNG
  6
AUSGEZOGEN
 62
           1
  5
147
 10
539.109817504883
 20
-339.018021250407
 30
0.0
 11
718.163128518416
 21
-339.018021250407
 31
0.0
  0
LINE
  8
ZEICHNUNG
  6
AUSGEZOGEN
 62
           1
  5
148
 10
371.109817504883
 20
-339.018021250407
 30
0.0
 11
449.109817504883
 21
-339.018021250407
 31
0.0
  0
LINE
  8
BEMAßUNG
  6
STRICHPUNKT
 62
           2
  5
149
 10
431.609817504883
 20
-324.238439873109
 30
0.0
 11
431.609817504883
 21
-341.507951158152
 31
0.0
  0
LINE
  8
BEMAßUNG
  6
STRICHPUNKT
 62
           2
  5
14A
 10
556.609817504883
 20
-324.640056414622
 30
0.0
 11
556.609817504883
 21
-340.704718075126
 31
0.0
  0
LINE
  8
BEMAßUNG
  6
STRICHPUNKT
 62
           2
  5
14B
 10
681.609817504883
 20
-325.041672956135
 30
0.0
 11
681.609817504883
 21
-340.704718075126
 31
0.0
  0
CIRCLE
  8
ZEICHNUNG
  6
AUSGEZOGEN
 62
           1
  5
14C
 10
431.609817504883
 20
-332.768021250407
 30
0.0
 40
3.3
  0
CIRCLE
  8
ZEICHNUNG
  6
AUSGEZOGEN
 62
           1
  5
14D
 10
556.609817504883
 20
-332.768021250407
 30
0.0
 40
3.3
  0
CIRCLE
  8
ZEICHNUNG
  6
AUSGEZOGEN
 62
           1
  5
14E
 10
681.609817504883
 20
-332.768021250407
 30
0.0
 40
3.3
  0
LINE
  8
UNSICHTBARE
  6
VERDECKT
 62
           2
  5
14F
 10
449.109817504883
 20
-315.768021250407
 30
0.0
 11
539.109817504883
 21
-315.768021250407
 31
0.0
  0
LINE
  8
UNSICHTBARE
  6
VERDECKT
 62
           2
  5
150
 10
449.109817504883
 20
-349.768021250407
 30
0.0
 11
539.109817504883
 21
-349.768021250407
 31
0.0
  0
LINE
  8
UNSICHTBARE
  6
VERDECKT
 62
           2
  5
151
 10
449.109817504883
 20
-326.518021250407
 30
0.0
 11
539.109817504883
 21
-326.518021250407
 31
0.0
  0
LINE
  8
UNSICHTBARE
  6
VERDECKT
 62
           2
  5
152
 10
449.109817504883
 20
-339.018021250407
 30
0.0
 11
539.109817504883
 21
-339.018021250407
 31
0.0
  0
LINE
  8
ZEICHNUNG
  6
AUSGEZOGEN
 62
           1
  5
153
 10
530.109817504883
 20
-238.077414815267
 30
0.0
 11
567.355420996475
 21
-238.077414815267
 31
0.0
  0
LINE
  8
ZEICHNUNG
  6
AUSGEZOGEN
 62
           1
  5
154
 10
470.109817504883
 20
-238.077414815267
 30
0.0
 11
518.109817504883
 21
-238.077414815267
 31
0.0
  0
LINE
  8
ZEICHNUNG
  6
AUSGEZOGEN
 62
           1
  5
155
 10
371.109817504883
 20
-238.077414815267
 30
0.0
 11
458.109817504883
 21
-238.077414815267
 31
0.0
  0
LINE
  8
UNSICHTBARE
  6
VERDECKT
 62
           2
  5
156
 10
712.109817504883
 20
-216.26801743571
 30
0.0
 11
712.109817504883
 21
-208.76801743571
 31
0.0
  0
LINE
  8
UNSICHTBARE
  6
VERDECKT
 62
           2
  5
157
 10
730.109817504883
 20
-216.26801743571
 30
0.0
 11
730.109817504883
 21
-208.76801743571
 31
0.0
  0
LINE
  8
UNSICHTBARE
  6
VERDECKT
 62
           2
  5
158
 10
730.109817504883
 20
-216.26801743571
 30
0.0
 11
712.109817504883
 21
-216.26801743571
 31
0.0
  0
CIRCLE
  8
ZEICHNUNG
  6
AUSGEZOGEN
 62
           1
  5
159
 10
524.109817504883
 20
-360.268021250407
 30
0.0
 40
9.0
  0
CIRCLE
  8
ZEICHNUNG
  6
AUSGEZOGEN
 62
           1
  5
15A
 10
464.109817504883
 20
-360.268021250407
 30
0.0
 40
9.0
  0
CIRCLE
  8
ZEICHNUNG
  6
AUSGEZOGEN
 62
           1
  5
15B
 10
524.109817504883
 20
-360.268021250407
 30
0.0
 40
6.25
  0
CIRCLE
  8
ZEICHNUNG
  6
AUSGEZOGEN
 62
           1
  5
15C
 10
464.109817504883
 20
-360.268021250407
 30
0.0
 40
6.25
  0
ENDSEC
  0
EOF
