  0
SECTION
  2
HEADER
  9
$ACADVER
  1
AC1009
  9
$INSBASE
 10
0.0
 20
0.0
 30
0.0
  9
$EXTMIN
 10
235.0
 20
120.0
 30
0.0
  9
$EXTMAX
 10
770.0
 20
350.0
 30
0.0
  9
$LIMMIN
 10
235.0
 20
120.0
  9
$LIMMAX
 10
770.0
 20
350.0
  9
$ORTHOMODE
 70
           0
  9
$REGENMODE
 70
           1
  9
$FILLMODE
 70
           1
  9
$QTEXTMODE
 70
           0
  9
$MIRRTEXT
 70
           1
  9
$DRAGMODE
 70
           2
  9
$LTSCALE
 40
5.0
  9
$OSMODE
 70
           0
  9
$ATTMODE
 70
           1
  9
$TEXTSIZE
 40
0.2
  9
$TRACEWID
 40
0.05
  9
$TEXTSTYLE
  7
TXT
  9
$CLAYER
  8
0
  9
$CELTYPE
  6
CONTINUOUS
  9
$CECOLOR
 62
         256
  9
$DIMSCALE
 40
1.0
  9
$DIMASZ
 40
3.5
  9
$DIMEXO
 40
0.0625
  9
$DIMDLI
 40
0.38
  9
$DIMRND
 40
0.0
  9
$DIMDLE
 40
0.0
  9
$DIMEXE
 40
0.18
  9
$DIMTP
 40
0.0
  9
$DIMTM
 40
0.0
  9
$DIMTXT
 40
3.5
  9
$DIMCEN
 40
0.09
  9
$DIMTSZ
 40
0.0
  9
$DIMTOL
 70
           0
  9
$DIMLIM
 70
           0
  9
$DIMTIH
 70
           1
  9
$DIMTOH
 70
           1
  9
$DIMSE1
 70
           0
  9
$DIMSE2
 70
           0
  9
$DIMTAD
 70
           0
  9
$DIMZIN
 70
           0
  9
$DIMBLK
  1

  9
$DIMASO
 70
           1
  9
$DIMSHO
 70
           1
  9
$DIMPOST
  1

  9
$DIMAPOST
  1

  9
$DIMALT
 70
           0
  9
$DIMALTD
 70
           2
  9
$DIMALTF
 40
25.4
  9
$DIMLFAC
 40
1.0
  9
$DIMTOFL
 70
           0
  9
$DIMTVP
 40
0.0
  9
$DIMTIX
 70
           0
  9
$DIMSOXD
 70
           0
  9
$DIMSAH
 70
           0
  9
$DIMBLK1
  1

  9
$DIMBLK2
  1

  9
$DIMSTYLE
  2
STANDARD
  9
$DIMCLRD
 70
           0
  9
$DIMCLRE
 70
           0
  9
$DIMCLRT
 70
           0
  9
$DIMTFAC
 40
1.0
  9
$DIMGAP
 40
0.09
  9
$LUNITS
 70
           2
  9
$LUPREC
 70
           2
  9
$AXISMODE
 70
           0
  9
$AXISUNIT
 10
0.0
 20
0.0
  9
$SKETCHINC
 40
0.1
  9
$FILLETRAD
 40
0.0
  9
$AUNITS
 70
           0
  9
$AUPREC
 70
           2
  9
$MENU
  1
acad
  9
$ELEVATION
 40
0.0
  9
$PELEVATION
 40
0.0
  9
$THICKNESS
 40
0.0
  9
$LIMCHECK
 70
           0
  9
$BLIPMODE
 70
           1
  9
$CHAMFERA
 40
0.0
  9
$CHAMFERB
 40
0.0
  9
$SKPOLY
 70
           0
  9
$TDCREATE
 40
0.000000000
  9
$TDUPDATE
 40
0.000000000
  9
$TDINDWG
 40
0.0000000000
  9
$TDUSRTIMER
 40
0.0000000000
  9
$USRTIMER
 70
           1
  9
$ANGBASE
 50
0.0
  9
$ANGDIR
 70
           0
  9
$PDMODE
 70
           2
  9
$PDSIZE
 40
0.5
  9
$PLINEWID
 40
0.0
  9
$COORDS
 70
           0
  9
$SPLFRAME
 70
           0
  9
$SPLINETYPE
 70
           6
  9
$SPLINESEGS
 70
           8
  9
$ATTDIA
 70
           0
  9
$ATTREQ
 70
           1
  9
$HANDLING
 70
           1
  9
$HANDSEED
  5
1F7
  9
$SURFTAB1
 70
           6
  9
$SURFTAB2
 70
           6
  9
$SURFTYPE
 70
           6
  9
$SURFU
 70
           6
  9
$SURFV
 70
           6
  9
$UCSNAME
  2

  9
$UCSORG
 10
0.0
 20
0.0
 30
0.0
  9
$UCSXDIR
 10
1.0
 20
0.0
 30
0.0
  9
$UCSYDIR
 10
0.0
 20
1.0
 30
0.0
  9
$PUCSNAME
  2

  9
$PUCSORG
 10
0.0
 20
0.0
 30
0.0
  9
$PUCSXDIR
 10
1.0
 20
0.0
 30
0.0
  9
$PUCSYDIR
 10
0.0
 20
1.0
 30
0.0
  9
$USERI1
 70
           0
  9
$USERI2
 70
           0
  9
$USERI3
 70
           0
  9
$USERI4
 70
           0
  9
$USERI5
 70
           0
  9
$USERR1
 40
0.0
  9
$USERR2
 40
0.0
  9
$USERR3
 40
0.0
  9
$USERR4
 40
0.0
  9
$USERR5
 40
0.0
  9
$WORLDVIEW
 70
           1
  9
$SHADEDGE
 70
           3
  9
$SHADEDIF
 70
          70
  9
$TILEMODE
 70
           1
  9
$MAXACTVP
 70
          16
  9
$PINSBASE
 10
0.0
 20
0.0
 30
0.0
  9
$PLIMCHECK
 70
           0
  9
$PEXTMIN
 10
1.000000000000E+20
 20
1.000000000000E+20
 30
1.000000000000E+20
  9
$PEXTMAX
 10
-1.000000000000E+20
 20
-1.000000000000E+20
 30
-1.000000000000E+20
  9
$PLIMMIN
 10
0.0
 20
0.0
  9
$PLIMMAX
 10
12.0
 20
9.0
  9
$UNITMODE
 70
           0
  9
$VISRETAIN
 70
           0
  9
$PLINEGEN
 70
           1
  9
$PSLTSCALE
 70
           0
  9
$TREEDEPTH
 70
        3020
  9
$DWGCODEPAGE
  3
dos850
  0
ENDSEC
  0
SECTION
  2
TABLES
  0
TABLE
  2
VPORT
 70
           1
  0
VPORT
  2
*ACTIVE
 70
           0
 10
0.0
 20
0.0
 11
1.0
 21
1.0
 12
6.591288
 22
4.579184
 13
0.0
 23
0.0
 14
1.0
 24
1.0
 15
0.0
 25
0.0
 16
0.0
 26
0.0
 36
1.0
 17
0.0
 27
0.0
 37
0.0
 40
9.158369
 41
0.688564
 42
50.0
 43
0.0
 44
0.0
 50
0.0
 51
0.0
 71
           0
 72
         100
 73
           1
 74
           1
 75
           0
 76
           0
 77
           0
 78
           0
  0
ENDTAB
  0
TABLE
  2
LTYPE
 70
           4
  0
LTYPE
  2
CONTINUOUS
 70
          64
  3
Solid line
 72
          65
 73
           0
 40
0.0
  0
LTYPE
  2
AUSGEZOGEN
 70
           0
  3

 72
          65
 73
           2
 40
0.5
 49
0.25
 49
-0.25
  0
LTYPE
  2
VERDECKT
 70
           0
  3

 72
          65
 73
           2
 40
0.375
 49
0.25
 49
-0.125
  0
LTYPE
  2
STRICHPUNKT
 70
           0
  3

 72
          65
 73
           4
 40
1.0
 49
0.5
 49
-0.25
 49
0.0
 49
-0.25
  0
ENDTAB
  0
TABLE
  2
LAYER
 70
           5
  0
LAYER
  2
0
 70
           0
 62
           7
  6
CONTINUOUS
  0
LAYER
  2
ZEICHNUNG
 70
           0
 62
           7
  6
CONTINUOUS
  0
LAYER
  2
BEMAßUNG
 70
           0
 62
           7
  6
CONTINUOUS
  0
LAYER
  2
UNSICHTBARE
 70
           0
 62
           7
  6
CONTINUOUS
  0
LAYER
  2
MITTELLINIEN
 70
           0
 62
           7
  6
CONTINUOUS
  0
ENDTAB
  0
TABLE
  2
STYLE
 70
           1
  0
STYLE
  2
TXT
 70
           0
 40
3.5
 41
1.0
 50
0.0
 71
           0
 42
3.5
  3
TXT
  4

  0
ENDTAB
  0
TABLE
  2
VIEW
 70
           0
  0
ENDTAB
  0
TABLE
  2
UCS
 70
           0
  0
ENDTAB
  0
TABLE
  2
APPID
 70
           2
  0
APPID
  2
ACAD
 70
           0
  0
APPID
  2
MegaCADPntStyle
 70
           0
  0
ENDTAB
  0
TABLE
  2
DIMSTYLE
 70
           1
  0
DIMSTYLE
  2
STANDARD
 70
           0
  3

  4

  5

  6

  7

 40
1.0
 41
0.18
 42
0.0625
 43
0.38
 44
0.18
 45
0.0
 46
0.0
 47
0.0
 48
0.0
 71
           0
 72
           0
 73
           1
 74
           1
 75
           0
 76
           0
 77
           0
 78
           0
140
0.18
141
0.09
142
0.0
143
25.4
144
1.0
145
0.0
146
1.0
147
0.09
170
           0
171
           2
172
           0
173
           0
174
           0
175
           0
176
           0
177
           0
178
           0
  0
ENDTAB
  0
ENDSEC
  0
SECTION
  2
BLOCKS
  0
BLOCK
  8
0
  5
156
  2
ELIPPSE
 70
          64
 10
0.0
 20
0.0
 30
0.0
  3
ELIPPSE
  0
CIRCLE
  8
0
  6
BYBLOCK
 62
           0
  5
157
 10
0.0
 20
0.0
 30
0.0
 40
1.0
  0
ENDBLK
  8
0
  6
BYBLOCK
 62
           0
  5
158
  0
BLOCK
  8
0
  5
159
  2
M12ANS_1
 70
          64
 10
0.0
 20
0.0
 30
0.0
  3
M12ANS_1
  0
LINE
  8
0
  6
BYBLOCK
 62
           0
  5
15A
 10
9.5
 20
-5.484840393066
 30
0.0
 11
9.5
 21
5.484832763672
 31
0.0
  0
LINE
  8
0
  6
BYBLOCK
 62
           0
  5
15B
 10
-9.5
 20
-5.484832763672
 30
0.0
 11
-9.5
 21
5.484825134277
 31
0.0
  0
LINE
  8
0
  6
BYBLOCK
 62
           0
  5
15C
 10
9.5
 20
5.484832763672
 30
0.0
 11
0.000007629395
 21
10.969657897949
 31
0.0
  0
LINE
  8
0
  6
BYBLOCK
 62
           0
  5
15D
 10
0.000007629395
 20
-10.969665527344
 30
0.0
 11
-9.5
 21
-5.484832763672
 31
0.0
  0
LINE
  8
0
  6
BYBLOCK
 62
           0
  5
15E
 10
9.5
 20
-5.484840393066
 30
0.0
 11
0.000007629395
 21
-10.969665527344
 31
0.0
  0
LINE
  8
0
  6
BYBLOCK
 62
           0
  5
15F
 10
0.000007629395
 20
10.969657897949
 30
0.0
 11
-9.5
 21
5.484825134277
 31
0.0
  0
CIRCLE
  8
0
  6
BYBLOCK
 62
           0
  5
160
 10
0.0
 20
-0.000007629395
 30
0.0
 40
9.5
  0
CIRCLE
  8
0
  6
BYBLOCK
 62
           0
  5
161
 10
0.0
 20
0.0
 30
0.0
 40
6.0
  0
ARC
  8
0
  6
BYBLOCK
 62
           0
  5
162
 10
0.0
 20
0.0
 30
0.0
 40
5.400000095367
 50
90.000001252239
 51
90.000001252239
  0
ENDBLK
  8
0
  6
BYBLOCK
 62
           0
  5
163
  0
BLOCK
  8
0
  5
164
  2
M12ANS_2
 70
          64
 10
0.0
 20
0.0
 30
0.0
  3
M12ANS_2
  0
LINE
  8
0
  6
BYBLOCK
 62
           0
  5
165
 10
9.5
 20
-5.484840393066
 30
0.0
 11
9.5
 21
5.484832763672
 31
0.0
  0
LINE
  8
0
  6
BYBLOCK
 62
           0
  5
166
 10
-9.5
 20
-5.484832763672
 30
0.0
 11
-9.5
 21
5.484825134277
 31
0.0
  0
LINE
  8
0
  6
BYBLOCK
 62
           0
  5
167
 10
9.5
 20
5.484832763672
 30
0.0
 11
0.000007629395
 21
10.969657897949
 31
0.0
  0
LINE
  8
0
  6
BYBLOCK
 62
           0
  5
168
 10
0.000007629395
 20
-10.969665527344
 30
0.0
 11
-9.5
 21
-5.484832763672
 31
0.0
  0
LINE
  8
0
  6
BYBLOCK
 62
           0
  5
169
 10
9.5
 20
-5.484840393066
 30
0.0
 11
0.000007629395
 21
-10.969665527344
 31
0.0
  0
LINE
  8
0
  6
BYBLOCK
 62
           0
  5
16A
 10
0.000007629395
 20
10.969657897949
 30
0.0
 11
-9.5
 21
5.484825134277
 31
0.0
  0
CIRCLE
  8
0
  6
BYBLOCK
 62
           0
  5
16B
 10
0.0
 20
-0.000007629395
 30
0.0
 40
9.5
  0
CIRCLE
  8
0
  6
BYBLOCK
 62
           0
  5
16C
 10
0.0
 20
0.0
 30
0.0
 40
6.0
  0
ARC
  8
0
  6
BYBLOCK
 62
           0
  5
16D
 10
0.0
 20
0.0
 30
0.0
 40
5.400000095367
 50
90.000001252239
 51
90.000001252239
  0
ENDBLK
  8
0
  6
BYBLOCK
 62
           0
  5
16E
  0
BLOCK
  8
0
  5
16F
  2
*X3
 70
          65
 10
0.0
 20
0.0
 30
0.0
  3
*X3
  0
LINE
  8
0
  6
BYBLOCK
 62
           0
  5
170
 10
689.210117448895
 20
320.731978749593
 30
0.0
 11
691.609817504883
 21
323.131678805581
 31
0.0
  0
LINE
  8
0
  6
BYBLOCK
 62
           0
  5
171
 10
684.967476761776
 20
320.731978749593
 30
0.0
 11
686.609817504883
 21
322.3743194927
 31
0.0
  0
LINE
  8
0
  6
BYBLOCK
 62
           0
  5
172
 10
686.609817504883
 20
322.3743194927
 30
0.0
 11
687.609817504883
 21
323.3743194927
 31
0.0
  0
LINE
  8
0
  6
BYBLOCK
 62
           0
  5
173
 10
687.609817504883
 20
323.3743194927
 30
0.0
 11
691.609817504883
 21
327.3743194927
 31
0.0
  0
LINE
  8
0
  6
BYBLOCK
 62
           0
  5
174
 10
680.724836074657
 20
320.731978749593
 30
0.0
 11
686.609817504883
 21
326.616960179819
 31
0.0
  0
LINE
  8
0
  6
BYBLOCK
 62
           0
  5
175
 10
686.609817504883
 20
326.616960179819
 30
0.0
 11
687.609817504883
 21
327.616960179819
 31
0.0
  0
LINE
  8
0
  6
BYBLOCK
 62
           0
  5
176
 10
687.609817504883
 20
327.616960179819
 30
0.0
 11
691.609817504883
 21
331.616960179819
 31
0.0
  0
LINE
  8
0
  6
BYBLOCK
 62
           0
  5
177
 10
676.482195387537
 20
320.731978749593
 30
0.0
 11
686.609817504883
 21
330.859600866938
 31
0.0
  0
LINE
  8
0
  6
BYBLOCK
 62
           0
  5
178
 10
686.609817504883
 20
330.859600866938
 30
0.0
 11
687.609817504883
 21
331.859600866938
 31
0.0
  0
LINE
  8
0
  6
BYBLOCK
 62
           0
  5
179
 10
687.609817504883
 20
331.859600866938
 30
0.0
 11
691.609817504883
 21
335.859600866938
 31
0.0
  0
LINE
  8
0
  6
BYBLOCK
 62
           0
  5
17A
 10
672.239554700418
 20
320.731978749593
 30
0.0
 11
686.609817504883
 21
335.102241554058
 31
0.0
  0
LINE
  8
0
  6
BYBLOCK
 62
           0
  5
17B
 10
686.609817504883
 20
335.102241554058
 30
0.0
 11
687.609817504883
 21
336.102241554058
 31
0.0
  0
LINE
  8
0
  6
BYBLOCK
 62
           0
  5
17C
 10
687.609817504883
 20
336.102241554058
 30
0.0
 11
691.609817504883
 21
340.102241554058
 31
0.0
  0
LINE
  8
0
  6
BYBLOCK
 62
           0
  5
17D
 10
667.996914013299
 20
320.731978749593
 30
0.0
 11
686.609817504883
 21
339.344882241177
 31
0.0
  0
LINE
  8
0
  6
BYBLOCK
 62
           0
  5
17E
 10
686.609817504883
 20
339.344882241177
 30
0.0
 11
687.609817504883
 21
340.344882241177
 31
0.0
  0
LINE
  8
0
  6
BYBLOCK
 62
           0
  5
17F
 10
687.609817504883
 20
340.344882241177
 30
0.0
 11
691.609817504883
 21
344.344882241177
 31
0.0
  0
LINE
  8
0
  6
BYBLOCK
 62
           0
  5
180
 10
663.75427332618
 20
320.731978749593
 30
0.0
 11
686.609817504883
 21
343.587522928296
 31
0.0
  0
LINE
  8
0
  6
BYBLOCK
 62
           0
  5
181
 10
686.609817504883
 20
343.587522928296
 30
0.0
 11
687.609817504883
 21
344.587522928296
 31
0.0
  0
LINE
  8
0
  6
BYBLOCK
 62
           0
  5
182
 10
687.609817504883
 20
344.587522928296
 30
0.0
 11
688.05427332618
 21
345.031978749593
 31
0.0
  0
LINE
  8
0
  6
BYBLOCK
 62
           0
  5
183
 10
659.51163263906
 20
320.731978749593
 30
0.0
 11
683.81163263906
 21
345.031978749593
 31
0.0
  0
LINE
  8
0
  6
BYBLOCK
 62
           0
  5
184
 10
655.268991951941
 20
320.731978749593
 30
0.0
 11
679.568991951941
 21
345.031978749593
 31
0.0
  0
LINE
  8
0
  6
BYBLOCK
 62
           0
  5
185
 10
651.026351264822
 20
320.731978749593
 30
0.0
 11
675.326351264822
 21
345.031978749593
 31
0.0
  0
LINE
  8
0
  6
BYBLOCK
 62
           0
  5
186
 10
646.783710577702
 20
320.731978749593
 30
0.0
 11
671.083710577702
 21
345.031978749593
 31
0.0
  0
LINE
  8
0
  6
BYBLOCK
 62
           0
  5
187
 10
643.109817504883
 20
321.300726363893
 30
0.0
 11
644.109817504883
 21
322.300726363893
 31
0.0
  0
LINE
  8
0
  6
BYBLOCK
 62
           0
  5
188
 10
644.109817504883
 20
322.300726363893
 30
0.0
 11
666.841069890583
 21
345.031978749593
 31
0.0
  0
LINE
  8
0
  6
BYBLOCK
 62
           0
  5
189
 10
643.109817504883
 20
325.543367051012
 30
0.0
 11
644.109817504883
 21
326.543367051012
 31
0.0
  0
LINE
  8
0
  6
BYBLOCK
 62
           0
  5
18A
 10
644.109817504883
 20
326.543367051012
 30
0.0
 11
662.598429203464
 21
345.031978749593
 31
0.0
  0
LINE
  8
0
  6
BYBLOCK
 62
           0
  5
18B
 10
634.055788516345
 20
320.731978749593
 30
0.0
 11
634.109817504883
 21
320.786007738131
 31
0.0
  0
LINE
  8
0
  6
BYBLOCK
 62
           0
  5
18C
 10
634.109817504883
 20
320.786007738131
 30
0.0
 11
635.109817504883
 21
321.786007738131
 31
0.0
  0
LINE
  8
0
  6
BYBLOCK
 62
           0
  5
18D
 10
643.109817504883
 20
329.786007738131
 30
0.0
 11
644.109817504883
 21
330.786007738131
 31
0.0
  0
LINE
  8
0
  6
BYBLOCK
 62
           0
  5
18E
 10
644.109817504883
 20
330.786007738131
 30
0.0
 11
658.355788516345
 21
345.031978749593
 31
0.0
  0
LINE
  8
0
  6
BYBLOCK
 62
           0
  5
18F
 10
629.813147829225
 20
320.731978749593
 30
0.0
 11
634.109817504883
 21
325.028648425251
 31
0.0
  0
LINE
  8
0
  6
BYBLOCK
 62
           0
  5
190
 10
634.109817504883
 20
325.028648425251
 30
0.0
 11
635.109817504883
 21
326.028648425251
 31
0.0
  0
LINE
  8
0
  6
BYBLOCK
 62
           0
  5
191
 10
643.109817504883
 20
334.028648425251
 30
0.0
 11
644.109817504883
 21
335.028648425251
 31
0.0
  0
LINE
  8
0
  6
BYBLOCK
 62
           0
  5
192
 10
644.109817504883
 20
335.028648425251
 30
0.0
 11
654.113147829225
 21
345.031978749593
 31
0.0
  0
LINE
  8
0
  6
BYBLOCK
 62
           0
  5
193
 10
625.570507142106
 20
320.731978749593
 30
0.0
 11
634.109817504883
 21
329.27128911237
 31
0.0
  0
LINE
  8
0
  6
BYBLOCK
 62
           0
  5
194
 10
634.109817504883
 20
329.27128911237
 30
0.0
 11
635.109817504883
 21
330.27128911237
 31
0.0
  0
LINE
  8
0
  6
BYBLOCK
 62
           0
  5
195
 10
643.109817504883
 20
338.27128911237
 30
0.0
 11
644.109817504883
 21
339.27128911237
 31
0.0
  0
LINE
  8
0
  6
BYBLOCK
 62
           0
  5
196
 10
644.109817504883
 20
339.27128911237
 30
0.0
 11
649.870507142106
 21
345.031978749593
 31
0.0
  0
LINE
  8
0
  6
BYBLOCK
 62
           0
  5
197
 10
621.327866454987
 20
320.731978749593
 30
0.0
 11
634.109817504883
 21
333.513929799489
 31
0.0
  0
LINE
  8
0
  6
BYBLOCK
 62
           0
  5
198
 10
634.109817504883
 20
333.513929799489
 30
0.0
 11
635.109817504883
 21
334.513929799489
 31
0.0
  0
LINE
  8
0
  6
BYBLOCK
 62
           0
  5
199
 10
643.109817504883
 20
342.513929799489
 30
0.0
 11
644.109817504883
 21
343.513929799489
 31
0.0
  0
LINE
  8
0
  6
BYBLOCK
 62
           0
  5
19A
 10
644.109817504883
 20
343.513929799489
 30
0.0
 11
645.627866454987
 21
345.031978749593
 31
0.0
  0
LINE
  8
0
  6
BYBLOCK
 62
           0
  5
19B
 10
618.609817504883
 20
322.256570486609
 30
0.0
 11
634.109817504883
 21
337.756570486608
 31
0.0
  0
LINE
  8
0
  6
BYBLOCK
 62
           0
  5
19C
 10
634.109817504883
 20
337.756570486608
 30
0.0
 11
635.109817504883
 21
338.756570486608
 31
0.0
  0
LINE
  8
0
  6
BYBLOCK
 62
           0
  5
19D
 10
618.609817504883
 20
326.499211173728
 30
0.0
 11
634.109817504883
 21
341.999211173728
 31
0.0
  0
LINE
  8
0
  6
BYBLOCK
 62
           0
  5
19E
 10
634.109817504883
 20
341.999211173728
 30
0.0
 11
635.109817504883
 21
342.999211173728
 31
0.0
  0
LINE
  8
0
  6
BYBLOCK
 62
           0
  5
19F
 10
618.609817504883
 20
330.741851860847
 30
0.0
 11
632.899944393629
 21
345.031978749593
 31
0.0
  0
LINE
  8
0
  6
BYBLOCK
 62
           0
  5
1A0
 10
618.609817504883
 20
334.984492547966
 30
0.0
 11
628.65730370651
 21
345.031978749593
 31
0.0
  0
LINE
  8
0
  6
BYBLOCK
 62
           0
  5
1A1
 10
618.609817504883
 20
339.227133235086
 30
0.0
 11
624.41466301939
 21
345.031978749593
 31
0.0
  0
LINE
  8
0
  6
BYBLOCK
 62
           0
  5
1A2
 10
618.609817504883
 20
343.469773922205
 30
0.0
 11
620.172022332271
 21
345.031978749593
 31
0.0
  0
ENDBLK
  8
0
  6
BYBLOCK
 62
           0
  5
1A3
  0
BLOCK
  8
0
  5
1A4
  2
*X4
 70
          65
 10
0.0
 20
0.0
 30
0.0
  3
*X4
  0
LINE
  8
0
  6
BYBLOCK
 62
           0
  5
1A5
 10
761.335009129923
 20
320.731978749593
 30
0.0
 11
764.609817504883
 21
324.006787124553
 31
0.0
  0
LINE
  8
0
  6
BYBLOCK
 62
           0
  5
1A6
 10
757.092368442804
 20
320.731978749593
 30
0.0
 11
764.609817504883
 21
328.249427811672
 31
0.0
  0
LINE
  8
0
  6
BYBLOCK
 62
           0
  5
1A7
 10
752.849727755685
 20
320.731978749593
 30
0.0
 11
764.609817504883
 21
332.492068498791
 31
0.0
  0
LINE
  8
0
  6
BYBLOCK
 62
           0
  5
1A8
 10
748.607087068565
 20
320.731978749593
 30
0.0
 11
749.109817504883
 21
321.234709185911
 31
0.0
  0
LINE
  8
0
  6
BYBLOCK
 62
           0
  5
1A9
 10
749.109817504883
 20
321.234709185911
 30
0.0
 11
764.609817504883
 21
336.734709185911
 31
0.0
  0
LINE
  8
0
  6
BYBLOCK
 62
           0
  5
1AA
 10
748.109817504883
 20
324.47734987303
 30
0.0
 11
749.109817504883
 21
325.47734987303
 31
0.0
  0
LINE
  8
0
  6
BYBLOCK
 62
           0
  5
1AB
 10
749.109817504883
 20
325.47734987303
 30
0.0
 11
764.609817504883
 21
340.97734987303
 31
0.0
  0
LINE
  8
0
  6
BYBLOCK
 62
           0
  5
1AC
 10
748.109817504883
 20
328.719990560149
 30
0.0
 11
749.109817504883
 21
329.719990560149
 31
0.0
  0
LINE
  8
0
  6
BYBLOCK
 62
           0
  5
1AD
 10
749.109817504883
 20
329.719990560149
 30
0.0
 11
764.421805694327
 21
345.031978749593
 31
0.0
  0
LINE
  8
0
  6
BYBLOCK
 62
           0
  5
1AE
 10
735.879165007207
 20
320.731978749593
 30
0.0
 11
739.109817504883
 21
323.962631247268
 31
0.0
  0
LINE
  8
0
  6
BYBLOCK
 62
           0
  5
1AF
 10
739.109817504883
 20
323.962631247268
 30
0.0
 11
740.109817504883
 21
324.962631247268
 31
0.0
  0
LINE
  8
0
  6
BYBLOCK
 62
           0
  5
1B0
 10
748.109817504883
 20
332.962631247268
 30
0.0
 11
749.109817504883
 21
333.962631247268
 31
0.0
  0
LINE
  8
0
  6
BYBLOCK
 62
           0
  5
1B1
 10
749.109817504883
 20
333.962631247268
 30
0.0
 11
760.179165007207
 21
345.031978749593
 31
0.0
  0
LINE
  8
0
  6
BYBLOCK
 62
           0
  5
1B2
 10
731.636524320088
 20
320.731978749593
 30
0.0
 11
739.109817504883
 21
328.205271934388
 31
0.0
  0
LINE
  8
0
  6
BYBLOCK
 62
           0
  5
1B3
 10
739.109817504883
 20
328.205271934388
 30
0.0
 11
740.109817504883
 21
329.205271934388
 31
0.0
  0
LINE
  8
0
  6
BYBLOCK
 62
           0
  5
1B4
 10
748.109817504883
 20
337.205271934388
 30
0.0
 11
749.109817504883
 21
338.205271934388
 31
0.0
  0
LINE
  8
0
  6
BYBLOCK
 62
           0
  5
1B5
 10
749.109817504883
 20
338.205271934388
 30
0.0
 11
755.936524320088
 21
345.031978749593
 31
0.0
  0
LINE
  8
0
  6
BYBLOCK
 62
           0
  5
1B6
 10
727.393883632969
 20
320.731978749593
 30
0.0
 11
739.109817504883
 21
332.447912621507
 31
0.0
  0
LINE
  8
0
  6
BYBLOCK
 62
           0
  5
1B7
 10
739.109817504883
 20
332.447912621507
 30
0.0
 11
740.109817504883
 21
333.447912621507
 31
0.0
  0
LINE
  8
0
  6
BYBLOCK
 62
           0
  5
1B8
 10
748.109817504883
 20
341.447912621507
 30
0.0
 11
749.109817504883
 21
342.447912621507
 31
0.0
  0
LINE
  8
0
  6
BYBLOCK
 62
           0
  5
1B9
 10
749.109817504883
 20
342.447912621507
 30
0.0
 11
751.693883632969
 21
345.031978749593
 31
0.0
  0
LINE
  8
0
  6
BYBLOCK
 62
           0
  5
1BA
 10
723.15124294585
 20
320.731978749593
 30
0.0
 11
739.109817504883
 21
336.690553308626
 31
0.0
  0
LINE
  8
0
  6
BYBLOCK
 62
           0
  5
1BB
 10
739.109817504883
 20
336.690553308626
 30
0.0
 11
740.109817504883
 21
337.690553308626
 31
0.0
  0
LINE
  8
0
  6
BYBLOCK
 62
           0
  5
1BC
 10
718.90860225873
 20
320.731978749593
 30
0.0
 11
739.109817504883
 21
340.933193995746
 31
0.0
  0
LINE
  8
0
  6
BYBLOCK
 62
           0
  5
1BD
 10
739.109817504883
 20
340.933193995746
 30
0.0
 11
740.109817504883
 21
341.933193995746
 31
0.0
  0
LINE
  8
0
  6
BYBLOCK
 62
           0
  5
1BE
 10
714.665961571611
 20
320.731978749593
 30
0.0
 11
738.965961571611
 21
345.031978749593
 31
0.0
  0
LINE
  8
0
  6
BYBLOCK
 62
           0
  5
1BF
 10
710.423320884492
 20
320.731978749593
 30
0.0
 11
734.723320884492
 21
345.031978749593
 31
0.0
  0
LINE
  8
0
  6
BYBLOCK
 62
           0
  5
1C0
 10
706.180680197372
 20
320.731978749593
 30
0.0
 11
730.480680197372
 21
345.031978749593
 31
0.0
  0
LINE
  8
0
  6
BYBLOCK
 62
           0
  5
1C1
 10
701.938039510253
 20
320.731978749593
 30
0.0
 11
726.238039510253
 21
345.031978749593
 31
0.0
  0
LINE
  8
0
  6
BYBLOCK
 62
           0
  5
1C2
 10
697.695398823134
 20
320.731978749593
 30
0.0
 11
721.995398823134
 21
345.031978749593
 31
0.0
  0
LINE
  8
0
  6
BYBLOCK
 62
           0
  5
1C3
 10
693.452758136015
 20
320.731978749593
 30
0.0
 11
695.609817504883
 21
322.889038118461
 31
0.0
  0
LINE
  8
0
  6
BYBLOCK
 62
           0
  5
1C4
 10
695.609817504883
 20
322.889038118461
 30
0.0
 11
696.609817504883
 21
323.889038118461
 31
0.0
  0
LINE
  8
0
  6
BYBLOCK
 62
           0
  5
1C5
 10
696.609817504883
 20
323.889038118461
 30
0.0
 11
717.752758136015
 21
345.031978749593
 31
0.0
  0
LINE
  8
0
  6
BYBLOCK
 62
           0
  5
1C6
 10
691.609817504883
 20
323.131678805581
 30
0.0
 11
695.609817504883
 21
327.131678805581
 31
0.0
  0
LINE
  8
0
  6
BYBLOCK
 62
           0
  5
1C7
 10
695.609817504883
 20
327.131678805581
 30
0.0
 11
696.609817504883
 21
328.131678805581
 31
0.0
  0
LINE
  8
0
  6
BYBLOCK
 62
           0
  5
1C8
 10
696.609817504883
 20
328.131678805581
 30
0.0
 11
713.510117448895
 21
345.031978749593
 31
0.0
  0
LINE
  8
0
  6
BYBLOCK
 62
           0
  5
1C9
 10
691.609817504883
 20
327.3743194927
 30
0.0
 11
695.609817504883
 21
331.3743194927
 31
0.0
  0
LINE
  8
0
  6
BYBLOCK
 62
           0
  5
1CA
 10
695.609817504883
 20
331.3743194927
 30
0.0
 11
696.609817504883
 21
332.3743194927
 31
0.0
  0
LINE
  8
0
  6
BYBLOCK
 62
           0
  5
1CB
 10
696.609817504883
 20
332.3743194927
 30
0.0
 11
709.267476761776
 21
345.031978749593
 31
0.0
  0
LINE
  8
0
  6
BYBLOCK
 62
           0
  5
1CC
 10
691.609817504883
 20
331.616960179819
 30
0.0
 11
695.609817504883
 21
335.616960179819
 31
0.0
  0
LINE
  8
0
  6
BYBLOCK
 62
           0
  5
1CD
 10
695.609817504883
 20
335.616960179819
 30
0.0
 11
696.609817504883
 21
336.616960179819
 31
0.0
  0
LINE
  8
0
  6
BYBLOCK
 62
           0
  5
1CE
 10
696.609817504883
 20
336.616960179819
 30
0.0
 11
705.024836074657
 21
345.031978749593
 31
0.0
  0
LINE
  8
0
  6
BYBLOCK
 62
           0
  5
1CF
 10
691.609817504883
 20
335.859600866938
 30
0.0
 11
695.609817504883
 21
339.859600866938
 31
0.0
  0
LINE
  8
0
  6
BYBLOCK
 62
           0
  5
1D0
 10
695.609817504883
 20
339.859600866938
 30
0.0
 11
696.609817504883
 21
340.859600866938
 31
0.0
  0
LINE
  8
0
  6
BYBLOCK
 62
           0
  5
1D1
 10
696.609817504883
 20
340.859600866938
 30
0.0
 11
700.782195387537
 21
345.031978749593
 31
0.0
  0
LINE
  8
0
  6
BYBLOCK
 62
           0
  5
1D2
 10
691.609817504883
 20
340.102241554058
 30
0.0
 11
695.609817504883
 21
344.102241554058
 31
0.0
  0
LINE
  8
0
  6
BYBLOCK
 62
           0
  5
1D3
 10
695.609817504883
 20
344.102241554058
 30
0.0
 11
696.539554700418
 21
345.031978749593
 31
0.0
  0
LINE
  8
0
  6
BYBLOCK
 62
           0
  5
1D4
 10
691.609817504883
 20
344.344882241177
 30
0.0
 11
692.296914013299
 21
345.031978749593
 31
0.0
  0
ENDBLK
  8
0
  6
BYBLOCK
 62
           0
  5
1D5
  0
BLOCK
  8
0
  5
1D6
  2
*X5
 70
          65
 10
0.0
 20
0.0
 30
0.0
  3
*X5
  0
LINE
  8
0
  6
BYBLOCK
 62
           0
  5
1D7
 10
716.772113821574
 20
313.557972068337
 30
0.0
 11
710.598107140318
 21
319.731978749593
 31
0.0
  0
LINE
  8
0
  6
BYBLOCK
 62
           0
  5
1D8
 10
712.355473117341
 20
313.73197208545
 30
0.0
 11
706.355466453198
 21
319.731978749593
 31
0.0
  0
LINE
  8
0
  6
BYBLOCK
 62
           0
  5
1D9
 10
709.759838495065
 20
312.084966020607
 30
0.0
 11
702.112825766079
 21
319.731978749593
 31
0.0
  0
LINE
  8
0
  6
BYBLOCK
 62
           0
  5
1DA
 10
716.881365056275
 20
300.720798772278
 30
0.0
 11
713.870191743103
 21
303.73197208545
 31
0.0
  0
LINE
  8
0
  6
BYBLOCK
 62
           0
  5
1DB
 10
709.609817504883
 20
307.99234632367
 30
0.0
 11
708.870191425392
 21
308.73197240316
 31
0.0
  0
LINE
  8
0
  6
BYBLOCK
 62
           0
  5
1DC
 10
708.870191425392
 20
308.73197240316
 30
0.0
 11
700.859817504883
 21
316.74234632367
 31
0.0
  0
LINE
  8
0
  6
BYBLOCK
 62
           0
  5
1DD
 10
714.191638302664
 20
299.167884838769
 30
0.0
 11
700.627544391841
 21
312.731978749593
 31
0.0
  0
LINE
  8
0
  6
BYBLOCK
 62
           0
  5
1DE
 10
711.501911549053
 20
297.614970905261
 30
0.0
 11
697.109817504883
 21
312.007064949431
 31
0.0
  0
LINE
  8
0
  6
BYBLOCK
 62
           0
  5
1DF
 10
710.609817504883
 20
294.264424262312
 30
0.0
 11
697.109817504883
 21
307.764424262312
 31
0.0
  0
LINE
  8
0
  6
BYBLOCK
 62
           0
  5
1E0
 10
710.609817504883
 20
290.021783575193
 30
0.0
 11
700.859817504883
 21
299.771783575193
 31
0.0
  0
LINE
  8
0
  6
BYBLOCK
 62
           0
  5
1E1
 10
700.599622330483
 20
300.031978749593
 30
0.0
 11
697.109817504883
 21
303.521783575193
 31
0.0
  0
LINE
  8
0
  6
BYBLOCK
 62
           0
  5
1E2
 10
682.359817504883
 20
318.271783575193
 30
0.0
 11
680.899622330483
 21
319.731978749593
 31
0.0
  0
LINE
  8
0
  6
BYBLOCK
 62
           0
  5
1E3
 10
710.609817504883
 20
285.779142888074
 30
0.0
 11
700.859817504883
 21
295.529142888074
 31
0.0
  0
LINE
  8
0
  6
BYBLOCK
 62
           0
  5
1E4
 10
686.109817504883
 20
310.279142888074
 30
0.0
 11
683.656981643363
 21
312.731978749593
 31
0.0
  0
LINE
  8
0
  6
BYBLOCK
 62
           0
  5
1E5
 10
682.359817504883
 20
314.029142888074
 30
0.0
 11
676.656981643363
 21
319.731978749593
 31
0.0
  0
LINE
  8
0
  6
BYBLOCK
 62
           0
  5
1E6
 10
707.514340956244
 20
284.631978749593
 30
0.0
 11
700.859817504883
 21
291.286502200954
 31
0.0
  0
LINE
  8
0
  6
BYBLOCK
 62
           0
  5
1E7
 10
686.109817504883
 20
306.036502200954
 30
0.0
 11
672.414340956244
 21
319.731978749593
 31
0.0
  0
LINE
  8
0
  6
BYBLOCK
 62
           0
  5
1E8
 10
703.271700269125
 20
284.631978749593
 30
0.0
 11
697.109817504883
 21
290.793861513835
 31
0.0
  0
LINE
  8
0
  6
BYBLOCK
 62
           0
  5
1E9
 10
686.109817504883
 20
301.793861513835
 30
0.0
 11
668.938538000442
 21
318.965141018276
 31
0.0
  0
LINE
  8
0
  6
BYBLOCK
 62
           0
  5
1EA
 10
699.029059582005
 20
284.631978749593
 30
0.0
 11
697.109817504883
 21
286.551220826716
 31
0.0
  0
LINE
  8
0
  6
BYBLOCK
 62
           0
  5
1EB
 10
683.629059582005
 20
300.031978749593
 30
0.0
 11
673.609817504883
 21
310.051220826716
 31
0.0
  0
LINE
  8
0
  6
BYBLOCK
 62
           0
  5
1EC
 10
669.929053867698
 20
313.731984463901
 30
0.0
 11
666.248812340474
 21
317.412225991125
 31
0.0
  0
LINE
  8
0
  6
BYBLOCK
 62
           0
  5
1ED
 10
682.359817504883
 20
297.058580139596
 30
0.0
 11
673.171863109435
 21
306.246534535044
 31
0.0
  0
LINE
  8
0
  6
BYBLOCK
 62
           0
  5
1EE
 10
686.109817504883
 20
289.065939452477
 30
0.0
 11
684.143778207767
 21
291.031978749593
 31
0.0
  0
LINE
  8
0
  6
BYBLOCK
 62
           0
  5
1EF
 10
682.359817504883
 20
292.815939452477
 30
0.0
 11
671.305399906124
 21
303.870357051236
 31
0.0
  0
LINE
  8
0
  6
BYBLOCK
 62
           0
  5
1F0
 10
686.109817504883
 20
284.823298765358
 30
0.0
 11
666.904644338154
 21
304.028471932086
 31
0.0
  0
LINE
  8
0
  6
BYBLOCK
 62
           0
  5
1F1
 10
682.058496833528
 20
284.631978749593
 30
0.0
 11
672.609817504883
 21
294.080658078239
 31
0.0
  0
LINE
  8
0
  6
BYBLOCK
 62
           0
  5
1F2
 10
677.815856146409
 20
284.631978749593
 30
0.0
 11
672.609817504883
 21
289.838017391119
 31
0.0
  0
LINE
  8
0
  6
BYBLOCK
 62
           0
  5
1F3
 10
673.57321545929
 20
284.631978749593
 30
0.0
 11
672.609817504883
 21
285.595376704
 31
0.0
  0
ENDBLK
  8
0
  6
BYBLOCK
 62
           0
  5
1F4
  0
ENDSEC
  0
SECTION
  2
ENTITIES
  0
INSERT
  8
ZEICHNUNG
  6
AUSGEZOGEN
 62
           1
  5
2B
  2
M12ANS_1
 10
545.109817504883
 20
147.581978749593
 30
0.0
  0
INSERT
  8
ZEICHNUNG
  6
AUSGEZOGEN
 62
           1
  5
2C
  2
M12ANS_2
 10
443.109817504883
 20
147.581978749593
 30
0.0
  0
LINE
  8
BEMAßUNG
  6
STRICHPUNKT
 62
           2
  5
2D
 10
235.0
 20
197.231978749593
 30
0.0
 11
770.0
 21
197.231978749593
 31
0.0
  0
LINE
  8
BEMAßUNG
  6
STRICHPUNKT
 62
           2
  5
2E
 10
494.109817504883
 20
262.231978749593
 30
0.0
 11
494.109817504883
 21
132.231978749593
 31
0.0
  0
LINE
  8
BEMAßUNG
  6
STRICHPUNKT
 62
           2
  5
2F
 10
480.0
 20
249.731978749593
 30
0.0
 11
505.0
 21
249.731978749593
 31
0.0
  0
LINE
  8
BEMAßUNG
  6
STRICHPUNKT
 62
           2
  5
30
 10
480.0
 20
144.731978749593
 30
0.0
 11
505.0
 21
144.731978749593
 31
0.0
  0
CIRCLE
  8
ZEICHNUNG
  6
AUSGEZOGEN
 62
           1
  5
31
 10
549.109817504883
 20
197.231978749593
 30
0.0
 40
4.0
  0
CIRCLE
  8
ZEICHNUNG
  6
AUSGEZOGEN
 62
           1
  5
32
 10
494.109817504883
 20
144.731978749593
 30
0.0
 40
4.0
  0
CIRCLE
  8
ZEICHNUNG
  6
AUSGEZOGEN
 62
           1
  5
33
 10
494.109817504883
 20
249.731978749593
 30
0.0
 40
4.0
  0
CIRCLE
  8
ZEICHNUNG
  6
AUSGEZOGEN
 62
           1
  5
34
 10
439.109817504883
 20
197.231978749593
 30
0.0
 40
4.0
  0
ARC
  8
MITTELLINIEN
  6
AUSGEZOGEN
 62
           2
  5
35
 10
549.109817504883
 20
197.231978749593
 30
0.0
 40
5.0
 50
349.999997672743
 51
260.000000290906
  0
ARC
  8
MITTELLINIEN
  6
AUSGEZOGEN
 62
           2
  5
36
 10
494.109817504883
 20
144.731978749593
 30
0.0
 40
5.0
 50
349.999997672743
 51
260.000000290906
  0
ARC
  8
MITTELLINIEN
  6
AUSGEZOGEN
 62
           2
  5
37
 10
494.109817504883
 20
249.731978749593
 30
0.0
 40
5.0
 50
349.999997672743
 51
260.000000290906
  0
LINE
  8
BEMAßUNG
  6
STRICHPUNKT
 62
           2
  5
38
 10
708.375335693359
 20
308.73197208545
 30
0.0
 11
721.052300701344
 21
308.731980224394
 31
0.0
  0
LINE
  8
BEMAßUNG
  6
STRICHPUNKT
 62
           2
  5
39
 10
714.609817504883
 20
302.466610299561
 30
0.0
 11
714.609817504883
 21
315.116783486817
 31
0.0
  0
LINE
  8
BEMAßUNG
  6
STRICHPUNKT
 62
           2
  5
3A
 10
691.609817504883
 20
275.731978749593
 30
0.0
 11
691.609817504883
 21
350.0
 31
0.0
  0
LINE
  8
ZEICHNUNG
  6
AUSGEZOGEN
 62
           1
  5
3B
 10
697.109817504883
 20
300.031978749593
 30
0.0
 11
697.109817504883
 21
312.731978749593
 31
0.0
  0
LINE
  8
ZEICHNUNG
  6
AUSGEZOGEN
 62
           1
  5
3C
 10
697.109817504883
 20
284.631978749593
 30
0.0
 11
697.109817504883
 21
291.031978749593
 31
0.0
  0
LINE
  8
ZEICHNUNG
  6
AUSGEZOGEN
 62
           1
  5
3D
 10
697.109817504883
 20
284.631978749593
 30
0.0
 11
710.609817504883
 21
284.631978749593
 31
0.0
  0
LINE
  8
ZEICHNUNG
  6
AUSGEZOGEN
 62
           1
  5
3E
 10
697.109817504883
 20
291.031978749593
 30
0.0
 11
700.859817504883
 21
291.031978749593
 31
0.0
  0
LINE
  8
ZEICHNUNG
  6
AUSGEZOGEN
 62
           1
  5
3F
 10
717.109817504883
 20
313.648460732911
 30
0.0
 11
717.109817504883
 21
317.331977223714
 31
0.0
  0
LINE
  8
ZEICHNUNG
  6
AUSGEZOGEN
 62
           1
  5
40
 10
717.109817504883
 20
300.852695809815
 30
0.0
 11
717.109817504883
 21
303.815483437989
 31
0.0
  0
LINE
  8
ZEICHNUNG
  6
AUSGEZOGEN
 62
           1
  5
41
 10
717.109817504883
 20
317.331977223714
 30
0.0
 11
712.952896118164
 21
319.731978749593
 31
0.0
  0
LINE
  8
ZEICHNUNG
  6
AUSGEZOGEN
 62
           1
  5
42
 10
700.859817504883
 20
291.031978749593
 30
0.0
 11
700.859817504883
 21
300.031978749593
 31
0.0
  0
LINE
  8
ZEICHNUNG
  6
AUSGEZOGEN
 62
           1
  5
43
 10
700.859817504883
 20
312.731978749593
 30
0.0
 11
700.859817504883
 21
319.731978749593
 31
0.0
  0
LINE
  8
ZEICHNUNG
  6
AUSGEZOGEN
 62
           1
  5
44
 10
712.109817504883
 20
303.73197208545
 30
0.0
 11
714.609817504883
 21
303.73197208545
 31
0.0
  0
LINE
  8
ZEICHNUNG
  6
AUSGEZOGEN
 62
           1
  5
45
 10
712.109817504883
 20
313.73197208545
 30
0.0
 11
714.609817504883
 21
313.73197208545
 31
0.0
  0
LINE
  8
ZEICHNUNG
  6
AUSGEZOGEN
 62
           1
  5
46
 10
709.609817504883
 20
306.23197208545
 30
0.0
 11
709.609817504883
 21
311.23197208545
 31
0.0
  0
ARC
  8
ZEICHNUNG
  6
AUSGEZOGEN
 62
           1
  5
47
 10
712.109817504883
 20
311.23197208545
 30
0.0
 40
2.5
 50
90.000002504479
 51
180.000008651422
  0
ARC
  8
ZEICHNUNG
  6
AUSGEZOGEN
 62
           1
  5
48
 10
712.109817504883
 20
306.23197208545
 30
0.0
 40
2.5
 50
180.000008651422
 51
269.99999749552
  0
LINE
  8
ZEICHNUNG
  6
AUSGEZOGEN
 62
           1
  5
49
 10
710.609817504883
 20
297.099920345076
 30
0.0
 11
717.109817504883
 21
300.852695809815
 31
0.0
  0
LINE
  8
ZEICHNUNG
  6
AUSGEZOGEN
 62
           1
  5
4A
 10
717.109817504883
 20
313.648460732911
 30
0.0
 11
716.309814453125
 21
313.434097634766
 31
0.0
  0
LINE
  8
ZEICHNUNG
  6
AUSGEZOGEN
 62
           1
  5
4B
 10
717.109817504883
 20
303.815483437989
 30
0.0
 11
716.309814453125
 21
304.029846536134
 31
0.0
  0
ARC
  8
ZEICHNUNG
  6
AUSGEZOGEN
 62
           1
  5
4C
 10
714.609817504883
 20
308.73197208545
 30
0.0
 40
5.0
 50
70.123072849852
 51
89.999913712019
  0
ARC
  8
ZEICHNUNG
  6
AUSGEZOGEN
 62
           1
  5
4D
 10
714.609817504883
 20
308.73197208545
 30
0.0
 40
5.0
 50
270.00008628798
 51
289.876927150147
  0
LINE
  8
ZEICHNUNG
  6
AUSGEZOGEN
 62
           1
  5
4E
 10
686.109817504883
 20
300.031978749593
 30
0.0
 11
686.109817504883
 21
312.731978749593
 31
0.0
  0
LINE
  8
ZEICHNUNG
  6
AUSGEZOGEN
 62
           1
  5
4F
 10
686.109817504883
 20
284.631978749593
 30
0.0
 11
686.109817504883
 21
291.031978749593
 31
0.0
  0
LINE
  8
ZEICHNUNG
  6
AUSGEZOGEN
 62
           1
  5
50
 10
686.109817504883
 20
284.631978749593
 30
0.0
 11
672.609817504883
 21
284.631978749593
 31
0.0
  0
LINE
  8
ZEICHNUNG
  6
AUSGEZOGEN
 62
           1
  5
51
 10
686.109817504883
 20
291.031978749593
 30
0.0
 11
682.359817504883
 21
291.031978749593
 31
0.0
  0
LINE
  8
ZEICHNUNG
  6
AUSGEZOGEN
 62
           1
  5
52
 10
712.952896118164
 20
319.731978749593
 30
0.0
 11
670.266738891602
 21
319.731978749593
 31
0.0
  0
LINE
  8
ZEICHNUNG
  6
AUSGEZOGEN
 62
           1
  5
53
 10
666.109817504883
 20
313.648473111362
 30
0.0
 11
666.109817504883
 21
317.331977223714
 31
0.0
  0
LINE
  8
ZEICHNUNG
  6
AUSGEZOGEN
 62
           1
  5
54
 10
666.109817504883
 20
313.648468159993
 30
0.0
 11
666.109817504883
 21
317.331977223714
 31
0.0
  0
LINE
  8
ZEICHNUNG
  6
AUSGEZOGEN
 62
           1
  5
55
 10
666.109817504883
 20
300.852708188266
 30
0.0
 11
666.109817504883
 21
303.81549581644
 31
0.0
  0
LINE
  8
ZEICHNUNG
  6
AUSGEZOGEN
 62
           1
  5
56
 10
666.109817504883
 20
300.852703236898
 30
0.0
 11
666.109817504883
 21
303.815490865072
 31
0.0
  0
LINE
  8
ZEICHNUNG
  6
AUSGEZOGEN
 62
           1
  5
57
 10
666.109817504883
 20
317.331977223714
 30
0.0
 11
670.266738891602
 21
319.731978749593
 31
0.0
  0
LINE
  8
ZEICHNUNG
  6
AUSGEZOGEN
 62
           1
  5
58
 10
700.859817504883
 20
300.031978749593
 30
0.0
 11
682.359817504883
 21
300.031978749593
 31
0.0
  0
LINE
  8
ZEICHNUNG
  6
AUSGEZOGEN
 62
           1
  5
59
 10
682.359817504883
 20
291.031978749593
 30
0.0
 11
682.359817504883
 21
300.031978749593
 31
0.0
  0
LINE
  8
ZEICHNUNG
  6
AUSGEZOGEN
 62
           1
  5
5A
 10
682.359817504883
 20
312.731978749593
 30
0.0
 11
682.359817504883
 21
319.731978749593
 31
0.0
  0
LINE
  8
ZEICHNUNG
  6
AUSGEZOGEN
 62
           1
  5
5B
 10
700.859817504883
 20
312.731978749593
 30
0.0
 11
682.359817504883
 21
312.731978749593
 31
0.0
  0
LINE
  8
ZEICHNUNG
  6
AUSGEZOGEN
 62
           1
  5
5C
 10
672.609817504883
 20
297.099932723527
 30
0.0
 11
666.109817504883
 21
300.852708188266
 31
0.0
  0
LINE
  8
ZEICHNUNG
  6
AUSGEZOGEN
 62
           1
  5
5D
 10
672.609817504883
 20
297.099927772159
 30
0.0
 11
666.109817504883
 21
300.852703236898
 31
0.0
  0
LINE
  8
BEMAßUNG
  6
STRICHPUNKT
 62
           2
  5
5E
 10
674.844299316406
 20
308.731984463901
 30
0.0
 11
662.756718670952
 21
308.731979290226
 31
0.0
  0
LINE
  8
BEMAßUNG
  6
STRICHPUNKT
 62
           2
  5
5F
 10
668.609817504883
 20
302.466622678012
 30
0.0
 11
668.609817504883
 21
315.116795865268
 31
0.0
  0
LINE
  8
UNSICHTBARE
  6
VERDECKT
 62
           2
  5
60
 10
668.609817504883
 20
302.466617726644
 30
0.0
 11
668.609817504883
 21
315.1167909139
 31
0.0
  0
LINE
  8
ZEICHNUNG
  6
AUSGEZOGEN
 62
           1
  5
61
 10
671.109817504883
 20
303.731984463901
 30
0.0
 11
668.609817504883
 21
303.731984463901
 31
0.0
  0
LINE
  8
ZEICHNUNG
  6
AUSGEZOGEN
 62
           1
  5
62
 10
671.109817504883
 20
303.731979512533
 30
0.0
 11
668.609817504883
 21
303.731979512533
 31
0.0
  0
LINE
  8
ZEICHNUNG
  6
AUSGEZOGEN
 62
           1
  5
63
 10
671.109817504883
 20
313.731984463901
 30
0.0
 11
668.609817504883
 21
313.731984463901
 31
0.0
  0
LINE
  8
ZEICHNUNG
  6
AUSGEZOGEN
 62
           1
  5
64
 10
671.109817504883
 20
313.731979512533
 30
0.0
 11
668.609817504883
 21
313.731979512533
 31
0.0
  0
LINE
  8
ZEICHNUNG
  6
AUSGEZOGEN
 62
           1
  5
65
 10
673.609817504883
 20
306.231984463901
 30
0.0
 11
673.609817504883
 21
311.231984463901
 31
0.0
  0
LINE
  8
UNSICHTBARE
  6
VERDECKT
 62
           2
  5
66
 10
673.609817504883
 20
306.231979512533
 30
0.0
 11
673.609817504883
 21
311.231979512533
 31
0.0
  0
ARC
  8
ZEICHNUNG
  6
AUSGEZOGEN
 62
           1
  5
67
 10
671.109817504883
 20
311.231984463901
 30
0.0
 40
2.5
 50
359.999991348578
 51
89.999997495521
  0
ARC
  8
ZEICHNUNG
  6
AUSGEZOGEN
 62
           1
  5
68
 10
671.109817504883
 20
311.231979512533
 30
0.0
 40
2.5
 50
359.999991348576
 51
89.999997495521
  0
ARC
  8
ZEICHNUNG
  6
AUSGEZOGEN
 62
           1
  5
69
 10
671.109817504883
 20
306.231984463901
 30
0.0
 40
2.5
 50
270.000002504479
 51
359.999991348578
  0
ARC
  8
ZEICHNUNG
  6
AUSGEZOGEN
 62
           1
  5
6A
 10
671.109817504883
 20
306.231979512533
 30
0.0
 40
2.5
 50
270.000002504479
 51
359.999991348576
  0
LINE
  8
ZEICHNUNG
  6
AUSGEZOGEN
 62
           1
  5
6B
 10
666.109817504883
 20
313.648473111362
 30
0.0
 11
666.909820556641
 21
313.434110013217
 31
0.0
  0
LINE
  8
ZEICHNUNG
  6
AUSGEZOGEN
 62
           1
  5
6C
 10
666.109817504883
 20
313.648468159993
 30
0.0
 11
666.909820556641
 21
313.434105061849
 31
0.0
  0
LINE
  8
ZEICHNUNG
  6
AUSGEZOGEN
 62
           1
  5
6D
 10
666.109817504883
 20
303.81549581644
 30
0.0
 11
666.909820556641
 21
304.029858914585
 31
0.0
  0
LINE
  8
ZEICHNUNG
  6
AUSGEZOGEN
 62
           1
  5
6E
 10
666.109817504883
 20
303.815490865072
 30
0.0
 11
666.909820556641
 21
304.029853963216
 31
0.0
  0
ARC
  8
ZEICHNUNG
  6
AUSGEZOGEN
 62
           1
  5
6F
 10
668.609817504883
 20
308.731984463901
 30
0.0
 40
5.0
 50
90.000086287981
 51
109.876927150148
  0
ARC
  8
ZEICHNUNG
  6
AUSGEZOGEN
 62
           1
  5
70
 10
668.609817504883
 20
308.731979512533
 30
0.0
 40
5.0
 50
90.000086287981
 51
109.876927150148
  0
ARC
  8
ZEICHNUNG
  6
AUSGEZOGEN
 62
           1
  5
71
 10
668.609817504883
 20
308.731984463901
 30
0.0
 40
5.0
 50
250.123072849851
 51
269.999913712019
  0
ARC
  8
ZEICHNUNG
  6
AUSGEZOGEN
 62
           1
  5
72
 10
668.609817504883
 20
308.731979512532
 30
0.0
 40
5.0
 50
250.123072849851
 51
269.999913712019
  0
LINE
  8
ZEICHNUNG
  6
AUSGEZOGEN
 62
           1
  5
73
 10
710.609817504883
 20
284.631978749593
 30
0.0
 11
710.609817504883
 21
297.099920345076
 31
0.0
  0
LINE
  8
ZEICHNUNG
  6
AUSGEZOGEN
 62
           1
  5
74
 10
672.609817504883
 20
284.631978749593
 30
0.0
 11
672.609817504883
 21
297.099932723527
 31
0.0
  0
LINE
  8
UNSICHTBARE
  6
VERDECKT
 62
           2
  5
75
 10
672.609817504883
 20
284.631978749593
 30
0.0
 11
672.609817504883
 21
297.099927772159
 31
0.0
  0
LINE
  8
BEMAßUNG
  6
STRICHPUNKT
 62
           2
  5
76
 10
549.109817504883
 20
315.0
 30
0.0
 11
549.109817504883
 21
345.0
 31
0.0
  0
LINE
  8
BEMAßUNG
  6
STRICHPUNKT
 62
           2
  5
77
 10
494.109817504883
 20
290.0
 30
0.0
 11
494.109817504883
 21
345.0
 31
0.0
  0
LINE
  8
BEMAßUNG
  6
STRICHPUNKT
 62
           2
  5
78
 10
439.109817504883
 20
315.0
 30
0.0
 11
439.109817504883
 21
345.0
 31
0.0
  0
LINE
  8
ZEICHNUNG
  6
AUSGEZOGEN
 62
           1
  5
79
 10
764.609817504883
 20
320.731978749593
 30
0.0
 11
764.609817504883
 21
345.031978749593
 31
0.0
  0
LINE
  8
ZEICHNUNG
  6
AUSGEZOGEN
 62
           1
  5
7A
 10
618.609817504883
 20
320.731978749593
 30
0.0
 11
618.609817504883
 21
345.031978749593
 31
0.0
  0
LINE
  8
ZEICHNUNG
  6
AUSGEZOGEN
 62
           1
  5
7B
 10
419.109817504883
 20
340.031978749593
 30
0.0
 11
569.109817504883
 21
340.031978749593
 31
0.0
  0
LINE
  8
ZEICHNUNG
  6
AUSGEZOGEN
 62
           1
  5
7C
 10
419.109817504883
 20
320.731978749593
 30
0.0
 11
419.109817504883
 21
340.031978749593
 31
0.0
  0
LINE
  8
ZEICHNUNG
  6
AUSGEZOGEN
 62
           1
  5
7D
 10
569.109817504883
 20
320.731978749593
 30
0.0
 11
569.109817504883
 21
340.031978749593
 31
0.0
  0
LINE
  8
UNSICHTBARE
  6
VERDECKT
 62
           2
  5
7E
 10
686.609817504883
 20
320.731978749593
 30
0.0
 11
686.609817504883
 21
345.031978749593
 31
0.0
  0
LINE
  8
UNSICHTBARE
  6
VERDECKT
 62
           2
  5
7F
 10
696.609817504883
 20
320.731978749593
 30
0.0
 11
696.609817504883
 21
345.031978749593
 31
0.0
  0
LINE
  8
UNSICHTBARE
  6
VERDECKT
 62
           2
  5
80
 10
687.609817504883
 20
320.731978749593
 30
0.0
 11
687.609817504883
 21
345.031978749593
 31
0.0
  0
LINE
  8
UNSICHTBARE
  6
VERDECKT
 62
           2
  5
81
 10
695.609817504883
 20
320.731978749593
 30
0.0
 11
695.609817504883
 21
345.031978749593
 31
0.0
  0
LINE
  8
UNSICHTBARE
  6
VERDECKT
 62
           2
  5
82
 10
489.109817504883
 20
320.731978749593
 30
0.0
 11
489.109817504883
 21
340.031978749593
 31
0.0
  0
LINE
  8
UNSICHTBARE
  6
VERDECKT
 62
           2
  5
83
 10
499.109817504883
 20
320.731978749593
 30
0.0
 11
499.109817504883
 21
340.031978749593
 31
0.0
  0
LINE
  8
UNSICHTBARE
  6
VERDECKT
 62
           2
  5
84
 10
490.109817504883
 20
320.731978749593
 30
0.0
 11
490.109817504883
 21
340.031978749593
 31
0.0
  0
LINE
  8
UNSICHTBARE
  6
VERDECKT
 62
           2
  5
85
 10
498.109817504883
 20
320.731978749593
 30
0.0
 11
498.109817504883
 21
340.031978749593
 31
0.0
  0
LINE
  8
ZEICHNUNG
  6
AUSGEZOGEN
 62
           1
  5
86
 10
764.609817504883
 20
320.731978749593
 30
0.0
 11
618.609817504883
 21
320.731978749593
 31
0.0
  0
LINE
  8
ZEICHNUNG
  6
AUSGEZOGEN
 62
           1
  5
87
 10
419.109817504883
 20
320.731978749593
 30
0.0
 11
569.109817504883
 21
320.731978749593
 31
0.0
  0
LINE
  8
UNSICHTBARE
  6
VERDECKT
 62
           2
  5
88
 10
545.109817504883
 20
320.731978749593
 30
0.0
 11
545.109817504883
 21
340.031978749593
 31
0.0
  0
LINE
  8
UNSICHTBARE
  6
VERDECKT
 62
           2
  5
89
 10
553.109817504883
 20
320.731978749593
 30
0.0
 11
553.109817504883
 21
340.031978749593
 31
0.0
  0
LINE
  8
UNSICHTBARE
  6
VERDECKT
 62
           2
  5
8A
 10
544.109817504883
 20
320.731978749593
 30
0.0
 11
544.109817504883
 21
340.031978749593
 31
0.0
  0
LINE
  8
UNSICHTBARE
  6
VERDECKT
 62
           2
  5
8B
 10
554.109817504883
 20
320.731978749593
 30
0.0
 11
554.109817504883
 21
340.031978749593
 31
0.0
  0
LINE
  8
UNSICHTBARE
  6
VERDECKT
 62
           2
  5
8C
 10
435.109817504883
 20
320.731978749593
 30
0.0
 11
435.109817504883
 21
340.031978749593
 31
0.0
  0
LINE
  8
UNSICHTBARE
  6
VERDECKT
 62
           2
  5
8D
 10
443.109817504883
 20
320.731978749593
 30
0.0
 11
443.109817504883
 21
340.031978749593
 31
0.0
  0
LINE
  8
UNSICHTBARE
  6
VERDECKT
 62
           2
  5
8E
 10
434.109817504883
 20
320.731978749593
 30
0.0
 11
434.109817504883
 21
340.031978749593
 31
0.0
  0
LINE
  8
UNSICHTBARE
  6
VERDECKT
 62
           2
  5
8F
 10
444.109817504883
 20
320.731978749593
 30
0.0
 11
444.109817504883
 21
340.031978749593
 31
0.0
  0
LINE
  8
BEMAßUNG
  6
STRICHPUNKT
 62
           2
  5
90
 10
439.109817504883
 20
185.0
 30
0.0
 11
439.109817504883
 21
210.0
 31
0.0
  0
LINE
  8
BEMAßUNG
  6
STRICHPUNKT
 62
           2
  5
91
 10
549.109817504883
 20
185.0
 30
0.0
 11
549.109817504883
 21
210.0
 31
0.0
  0
LINE
  8
BEMAßUNG
  6
STRICHPUNKT
 62
           2
  5
92
 10
639.109817504883
 20
315.0
 30
0.0
 11
639.109817504883
 21
350.0
 31
0.0
  0
LINE
  8
BEMAßUNG
  6
STRICHPUNKT
 62
           2
  5
93
 10
744.109817504883
 20
315.0
 30
0.0
 11
744.109817504883
 21
350.0
 31
0.0
  0
LINE
  8
ZEICHNUNG
  6
AUSGEZOGEN
 62
           1
  5
94
 10
764.609817504883
 20
345.031978749593
 30
0.0
 11
618.609817504883
 21
345.031978749593
 31
0.0
  0
LINE
  8
ZEICHNUNG
  6
AUSGEZOGEN
 62
           1
  5
95
 10
635.109817504883
 20
320.731978749593
 30
0.0
 11
635.109817504883
 21
345.031978749593
 31
0.0
  0
LINE
  8
ZEICHNUNG
  6
AUSGEZOGEN
 62
           1
  5
96
 10
643.109817504883
 20
320.731978749593
 30
0.0
 11
643.109817504883
 21
345.031978749593
 31
0.0
  0
LINE
  8
MITTELLINIEN
  6
AUSGEZOGEN
 62
           2
  5
97
 10
634.109817504883
 20
320.731978749593
 30
0.0
 11
634.109817504883
 21
345.031978749593
 31
0.0
  0
LINE
  8
MITTELLINIEN
  6
AUSGEZOGEN
 62
           2
  5
98
 10
644.109817504883
 20
320.731978749593
 30
0.0
 11
644.109817504883
 21
345.031978749593
 31
0.0
  0
LINE
  8
ZEICHNUNG
  6
AUSGEZOGEN
 62
           1
  5
99
 10
740.109817504883
 20
320.731978749593
 30
0.0
 11
740.109817504883
 21
345.031978749593
 31
0.0
  0
LINE
  8
ZEICHNUNG
  6
AUSGEZOGEN
 62
           1
  5
9A
 10
748.109817504883
 20
320.731978749593
 30
0.0
 11
748.109817504883
 21
345.031978749593
 31
0.0
  0
LINE
  8
MITTELLINIEN
  6
AUSGEZOGEN
 62
           2
  5
9B
 10
739.109817504883
 20
320.731978749593
 30
0.0
 11
739.109817504883
 21
345.031978749593
 31
0.0
  0
LINE
  8
MITTELLINIEN
  6
AUSGEZOGEN
 62
           2
  5
9C
 10
749.109817504883
 20
320.731978749593
 30
0.0
 11
749.109817504883
 21
345.031978749593
 31
0.0
  0
LINE
  8
BEMAßUNG
  6
STRICHPUNKT
 62
           2
  5
9D
 10
641.959817504883
 20
290.0
 30
0.0
 11
641.959817504883
 21
325.0
 31
0.0
  0
LINE
  8
BEMAßUNG
  6
STRICHPUNKT
 62
           2
  5
9E
 10
741.259817504883
 20
290.0
 30
0.0
 11
741.259817504883
 21
325.0
 31
0.0
  0
ARC
  8
ZEICHNUNG
  6
AUSGEZOGEN
 62
           1
  5
9F
 10
615.309808349609
 20
308.731979512533
 30
0.0
 40
5.0
 50
309.050261942897
 51
50.949738057102
  0
LINE
  8
ZEICHNUNG
  6
AUSGEZOGEN
 62
           1
  5
A0
 10
665.459817504883
 20
312.614959859212
 30
0.0
 11
665.459817504883
 21
317.031976460775
 31
0.0
  0
LINE
  8
ZEICHNUNG
  6
AUSGEZOGEN
 62
           1
  5
A1
 10
665.459817504883
 20
300.431978749593
 30
0.0
 11
665.459817504883
 21
304.848999165853
 31
0.0
  0
LINE
  8
ZEICHNUNG
  6
AUSGEZOGEN
 62
           1
  5
A2
 10
618.459817504883
 20
312.614944600423
 30
0.0
 11
618.459817504883
 21
317.031976460775
 31
0.0
  0
LINE
  8
ZEICHNUNG
  6
AUSGEZOGEN
 62
           1
  5
A3
 10
618.459817504883
 20
300.431978749593
 30
0.0
 11
618.459817504883
 21
304.849014424642
 31
0.0
  0
LINE
  8
ZEICHNUNG
  6
AUSGEZOGEN
 62
           1
  5
A4
 10
642.109811401367
 20
318.231976460775
 30
0.0
 11
619.659817504883
 21
318.231976460775
 31
0.0
  0
LINE
  8
ZEICHNUNG
  6
AUSGEZOGEN
 62
           1
  5
A5
 10
664.259817504883
 20
318.231976460775
 30
0.0
 11
642.109811401367
 21
318.231976460775
 31
0.0
  0
LINE
  8
ZEICHNUNG
  6
AUSGEZOGEN
 62
           1
  5
A6
 10
619.659817504883
 20
299.231978749593
 30
0.0
 11
664.259817504883
 21
299.231978749593
 31
0.0
  0
ARC
  8
ZEICHNUNG
  6
AUSGEZOGEN
 62
           1
  5
A7
 10
668.609811401367
 20
308.731979512533
 30
0.0
 40
5.0
 50
129.050031310328
 51
230.949968689672
  0
LINE
  8
ZEICHNUNG
  6
AUSGEZOGEN
 62
           1
  5
A8
 10
652.109811401367
 20
294.231978749593
 30
0.0
 11
652.109811401367
 21
299.231978749593
 31
0.0
  0
LINE
  8
ZEICHNUNG
  6
AUSGEZOGEN
 62
           1
  5
A9
 10
632.109811401367
 20
294.231978749593
 30
0.0
 11
632.109811401367
 21
299.231978749593
 31
0.0
  0
LINE
  8
ZEICHNUNG
  6
AUSGEZOGEN
 62
           1
  5
AA
 10
633.109811401367
 20
293.231978749593
 30
0.0
 11
651.109811401367
 21
293.231978749593
 31
0.0
  0
LINE
  8
ZEICHNUNG
  6
AUSGEZOGEN
 62
           1
  5
AB
 10
632.109811401367
 20
294.231978749593
 30
0.0
 11
633.109811401367
 21
293.231978749593
 31
0.0
  0
LINE
  8
ZEICHNUNG
  6
AUSGEZOGEN
 62
           1
  5
AC
 10
651.109811401367
 20
293.231978749593
 30
0.0
 11
652.109811401367
 21
294.231978749593
 31
0.0
  0
LINE
  8
ZEICHNUNG
  6
AUSGEZOGEN
 62
           1
  5
AD
 10
632.109811401367
 20
294.231978749593
 30
0.0
 11
652.109811401367
 21
294.231978749593
 31
0.0
  0
LINE
  8
ZEICHNUNG
  6
AUSGEZOGEN
 62
           1
  5
AE
 10
665.459817504883
 20
304.848998898093
 30
0.0
 11
618.459817504883
 21
304.849011276544
 31
0.0
  0
LINE
  8
ZEICHNUNG
  6
AUSGEZOGEN
 62
           1
  5
AF
 10
618.459817504883
 20
312.614947748521
 30
0.0
 11
665.459817504883
 21
312.614960126972
 31
0.0
  0
LINE
  8
ZEICHNUNG
  6
AUSGEZOGEN
 62
           1
  5
B0
 10
664.259817504883
 20
318.231976460775
 30
0.0
 11
665.459817504883
 21
317.031976460775
 31
0.0
  0
LINE
  8
ZEICHNUNG
  6
AUSGEZOGEN
 62
           1
  5
B1
 10
665.459817504883
 20
300.431978749593
 30
0.0
 11
664.259817504883
 21
299.231978749593
 31
0.0
  0
LINE
  8
ZEICHNUNG
  6
AUSGEZOGEN
 62
           1
  5
B2
 10
619.659817504883
 20
299.231978749593
 30
0.0
 11
618.459817504883
 21
300.431978749593
 31
0.0
  0
LINE
  8
ZEICHNUNG
  6
AUSGEZOGEN
 62
           1
  5
B3
 10
618.459817504883
 20
317.031976460775
 30
0.0
 11
619.659817504883
 21
318.231976460775
 31
0.0
  0
LINE
  8
ZEICHNUNG
  6
AUSGEZOGEN
 62
           1
  5
B4
 10
618.459817504883
 20
317.031976460775
 30
0.0
 11
665.459817504883
 21
317.031976460775
 31
0.0
  0
LINE
  8
ZEICHNUNG
  6
AUSGEZOGEN
 62
           1
  5
B5
 10
665.459817504883
 20
300.431978749593
 30
0.0
 11
618.459817504883
 21
300.431978749593
 31
0.0
  0
ARC
  8
ZEICHNUNG
  6
AUSGEZOGEN
 62
           1
  5
B6
 10
714.609808349609
 20
308.731979512533
 30
0.0
 40
5.0
 50
309.050261942897
 51
50.949738057102
  0
LINE
  8
ZEICHNUNG
  6
AUSGEZOGEN
 62
           1
  5
B7
 10
764.759817504883
 20
312.614959859212
 30
0.0
 11
764.759817504883
 21
317.031976460775
 31
0.0
  0
LINE
  8
ZEICHNUNG
  6
AUSGEZOGEN
 62
           1
  5
B8
 10
764.759817504883
 20
300.431978749593
 30
0.0
 11
764.759817504883
 21
304.848999165853
 31
0.0
  0
LINE
  8
ZEICHNUNG
  6
AUSGEZOGEN
 62
           1
  5
B9
 10
717.759817504883
 20
312.614944600423
 30
0.0
 11
717.759817504883
 21
317.031976460775
 31
0.0
  0
LINE
  8
ZEICHNUNG
  6
AUSGEZOGEN
 62
           1
  5
BA
 10
717.759817504883
 20
300.431978749593
 30
0.0
 11
717.759817504883
 21
304.849014424642
 31
0.0
  0
LINE
  8
ZEICHNUNG
  6
AUSGEZOGEN
 62
           1
  5
BB
 10
741.409811401367
 20
318.231976460775
 30
0.0
 11
718.959817504883
 21
318.231976460775
 31
0.0
  0
LINE
  8
ZEICHNUNG
  6
AUSGEZOGEN
 62
           1
  5
BC
 10
763.559817504883
 20
318.231976460775
 30
0.0
 11
741.409811401367
 21
318.231976460775
 31
0.0
  0
LINE
  8
ZEICHNUNG
  6
AUSGEZOGEN
 62
           1
  5
BD
 10
718.959817504883
 20
299.231978749593
 30
0.0
 11
763.559817504883
 21
299.231978749593
 31
0.0
  0
ARC
  8
ZEICHNUNG
  6
AUSGEZOGEN
 62
           1
  5
BE
 10
767.909811401367
 20
308.731979512533
 30
0.0
 40
5.0
 50
129.050031310328
 51
230.949968689672
  0
LINE
  8
ZEICHNUNG
  6
AUSGEZOGEN
 62
           1
  5
BF
 10
751.409811401367
 20
294.231978749593
 30
0.0
 11
751.409811401367
 21
299.231978749593
 31
0.0
  0
LINE
  8
ZEICHNUNG
  6
AUSGEZOGEN
 62
           1
  5
C0
 10
731.409811401367
 20
294.231978749593
 30
0.0
 11
731.409811401367
 21
299.231978749593
 31
0.0
  0
LINE
  8
ZEICHNUNG
  6
AUSGEZOGEN
 62
           1
  5
C1
 10
732.409811401367
 20
293.231978749593
 30
0.0
 11
750.409811401367
 21
293.231978749593
 31
0.0
  0
LINE
  8
ZEICHNUNG
  6
AUSGEZOGEN
 62
           1
  5
C2
 10
731.409811401367
 20
294.231978749593
 30
0.0
 11
732.409811401367
 21
293.231978749593
 31
0.0
  0
LINE
  8
ZEICHNUNG
  6
AUSGEZOGEN
 62
           1
  5
C3
 10
750.409811401367
 20
293.231978749593
 30
0.0
 11
751.409811401367
 21
294.231978749593
 31
0.0
  0
LINE
  8
ZEICHNUNG
  6
AUSGEZOGEN
 62
           1
  5
C4
 10
731.409811401367
 20
294.231978749593
 30
0.0
 11
751.409811401367
 21
294.231978749593
 31
0.0
  0
LINE
  8
ZEICHNUNG
  6
AUSGEZOGEN
 62
           1
  5
C5
 10
764.759817504883
 20
304.848998898093
 30
0.0
 11
717.759817504883
 21
304.849011276544
 31
0.0
  0
LINE
  8
ZEICHNUNG
  6
AUSGEZOGEN
 62
           1
  5
C6
 10
717.759817504883
 20
312.614947748521
 30
0.0
 11
764.759817504883
 21
312.614960126972
 31
0.0
  0
LINE
  8
ZEICHNUNG
  6
AUSGEZOGEN
 62
           1
  5
C7
 10
763.559817504883
 20
318.231976460775
 30
0.0
 11
764.759817504883
 21
317.031976460775
 31
0.0
  0
LINE
  8
ZEICHNUNG
  6
AUSGEZOGEN
 62
           1
  5
C8
 10
764.759817504883
 20
300.431978749593
 30
0.0
 11
763.559817504883
 21
299.231978749593
 31
0.0
  0
LINE
  8
ZEICHNUNG
  6
AUSGEZOGEN
 62
           1
  5
C9
 10
718.959817504883
 20
299.231978749593
 30
0.0
 11
717.759817504883
 21
300.431978749593
 31
0.0
  0
LINE
  8
ZEICHNUNG
  6
AUSGEZOGEN
 62
           1
  5
CA
 10
717.759817504883
 20
317.031976460775
 30
0.0
 11
718.959817504883
 21
318.231976460775
 31
0.0
  0
LINE
  8
ZEICHNUNG
  6
AUSGEZOGEN
 62
           1
  5
CB
 10
717.759817504883
 20
317.031976460775
 30
0.0
 11
764.759817504883
 21
317.031976460775
 31
0.0
  0
LINE
  8
ZEICHNUNG
  6
AUSGEZOGEN
 62
           1
  5
CC
 10
764.759817504883
 20
300.431978749593
 30
0.0
 11
717.759817504883
 21
300.431978749593
 31
0.0
  0
CIRCLE
  8
ZEICHNUNG
  6
AUSGEZOGEN
 62
           1
  5
CD
 10
668.609817504883
 20
308.731984463901
 30
0.0
 40
5.0
  0
CIRCLE
  8
ZEICHNUNG
  6
AUSGEZOGEN
 62
           1
  5
CE
 10
714.609817504883
 20
308.73197208545
 30
0.0
 40
5.0
  0
INSERT
  8
MITTELLINIEN
  6
AUSGEZOGEN
 62
           2
  5
CF
  2
*X3
 10
0.0
 20
0.0
 30
0.0
  0
INSERT
  8
MITTELLINIEN
  6
AUSGEZOGEN
 62
           2
  5
D0
  2
*X4
 10
0.0
 20
0.0
 30
0.0
  0
LINE
  8
ZEICHNUNG
  6
AUSGEZOGEN
 62
           1
  5
D1
 10
419.109817504883
 20
124.231978749593
 30
0.0
 11
419.109817504883
 21
270.231978749593
 31
0.0
  0
LINE
  8
ZEICHNUNG
  6
AUSGEZOGEN
 62
           1
  5
D2
 10
569.109817504883
 20
124.231978749593
 30
0.0
 11
569.109817504883
 21
270.231978749593
 31
0.0
  0
LINE
  8
ZEICHNUNG
  6
AUSGEZOGEN
 62
           1
  5
D3
 10
419.109817504883
 20
270.231978749593
 30
0.0
 11
569.109817504883
 21
270.231978749593
 31
0.0
  0
LINE
  8
ZEICHNUNG
  6
AUSGEZOGEN
 62
           1
  5
D4
 10
419.109817504883
 20
124.231978749593
 30
0.0
 11
569.109817504883
 21
124.231978749593
 31
0.0
  0
LINE
  8
BEMAßUNG
  6
STRICHPUNKT
 62
           2
  5
D5
 10
443.109817504883
 20
275.0
 30
0.0
 11
443.109817504883
 21
120.0
 31
0.0
  0
LINE
  8
BEMAßUNG
  6
STRICHPUNKT
 62
           2
  5
D6
 10
545.109817504883
 20
275.0
 30
0.0
 11
545.109817504883
 21
120.0
 31
0.0
  0
LINE
  8
BEMAßUNG
  6
STRICHPUNKT
 62
           2
  5
D7
 10
415.0
 20
246.881978749593
 30
0.0
 11
575.0
 21
246.881978749593
 31
0.0
  0
LINE
  8
BEMAßUNG
  6
STRICHPUNKT
 62
           2
  5
D8
 10
415.0
 20
147.581978749593
 30
0.0
 11
575.0
 21
147.581978749593
 31
0.0
  0
ARC
  8
ZEICHNUNG
  6
AUSGEZOGEN
 62
           1
  5
D9
 10
545.109817504883
 20
246.881978749593
 30
0.0
 40
23.5
 50
83.522899926037
 51
96.477100073963
  0
ARC
  8
UNSICHTBARE
  6
VERDECKT
 62
           2
  5
DA
 10
545.109817504883
 20
246.881978749593
 30
0.0
 40
23.5
 50
96.477100073963
 51
83.522899926037
  0
ARC
  8
ZEICHNUNG
  6
AUSGEZOGEN
 62
           1
  5
DB
 10
443.109817504883
 20
246.881978749593
 30
0.0
 40
23.5
 50
83.522899926037
 51
96.477100073962
  0
ARC
  8
UNSICHTBARE
  6
VERDECKT
 62
           2
  5
DC
 10
443.109817504883
 20
246.881978749593
 30
0.0
 40
23.5
 50
96.477100073962
 51
83.522899926037
  0
ARC
  8
ZEICHNUNG
  6
AUSGEZOGEN
 62
           1
  5
DD
 10
443.109817504883
 20
147.581978749593
 30
0.0
 40
23.5
 50
263.522899926036
 51
276.477100073963
  0
ARC
  8
UNSICHTBARE
  6
VERDECKT
 62
           2
  5
DE
 10
443.109817504883
 20
147.581978749593
 30
0.0
 40
23.5
 50
276.477100073963
 51
263.522899926036
  0
ARC
  8
ZEICHNUNG
  6
AUSGEZOGEN
 62
           1
  5
DF
 10
545.109817504883
 20
147.581978749593
 30
0.0
 40
23.5
 50
263.522899926036
 51
276.477100073963
  0
ARC
  8
UNSICHTBARE
  6
VERDECKT
 62
           2
  5
E0
 10
545.109817504883
 20
147.581978749593
 30
0.0
 40
23.5
 50
276.477100073963
 51
263.522899926036
  0
LINE
  8
ZEICHNUNG
  6
AUSGEZOGEN
 62
           1
  5
E1
 10
729.259817504883
 20
318.231976460775
 30
0.0
 11
729.259817504883
 21
320.731978749593
 31
0.0
  0
LINE
  8
ZEICHNUNG
  6
AUSGEZOGEN
 62
           1
  5
E2
 10
753.259817504883
 20
318.231976460775
 30
0.0
 11
753.259817504883
 21
320.731978749593
 31
0.0
  0
LINE
  8
ZEICHNUNG
  6
AUSGEZOGEN
 62
           1
  5
E3
 10
629.959817504883
 20
318.231976460775
 30
0.0
 11
629.959817504883
 21
320.731978749593
 31
0.0
  0
LINE
  8
ZEICHNUNG
  6
AUSGEZOGEN
 62
           1
  5
E4
 10
653.959817504883
 20
318.231976460775
 30
0.0
 11
653.959817504883
 21
320.731978749593
 31
0.0
  0
LINE
  8
BEMAßUNG
  6
STRICHPUNKT
 62
           2
  5
E5
 10
545.109817504883
 20
290.0
 30
0.0
 11
545.109817504883
 21
325.0
 31
0.0
  0
ARC
  8
ZEICHNUNG
  6
AUSGEZOGEN
 62
           1
  5
E6
 10
518.459808349609
 20
308.731979512533
 30
0.0
 40
5.0
 50
309.050261942897
 51
50.949738057102
  0
LINE
  8
ZEICHNUNG
  6
AUSGEZOGEN
 62
           1
  5
E7
 10
568.609817504883
 20
312.614959859212
 30
0.0
 11
568.609817504883
 21
317.031976460775
 31
0.0
  0
LINE
  8
ZEICHNUNG
  6
AUSGEZOGEN
 62
           1
  5
E8
 10
568.609817504883
 20
300.431978749593
 30
0.0
 11
568.609817504883
 21
304.848999165853
 31
0.0
  0
LINE
  8
ZEICHNUNG
  6
AUSGEZOGEN
 62
           1
  5
E9
 10
521.609817504883
 20
312.614944600423
 30
0.0
 11
521.609817504883
 21
317.031976460775
 31
0.0
  0
LINE
  8
ZEICHNUNG
  6
AUSGEZOGEN
 62
           1
  5
EA
 10
521.609817504883
 20
300.431978749593
 30
0.0
 11
521.609817504883
 21
304.849014424642
 31
0.0
  0
LINE
  8
ZEICHNUNG
  6
AUSGEZOGEN
 62
           1
  5
EB
 10
545.259811401367
 20
318.231976460775
 30
0.0
 11
522.809817504883
 21
318.231976460775
 31
0.0
  0
LINE
  8
ZEICHNUNG
  6
AUSGEZOGEN
 62
           1
  5
EC
 10
567.409817504883
 20
318.231976460775
 30
0.0
 11
545.259811401367
 21
318.231976460775
 31
0.0
  0
LINE
  8
ZEICHNUNG
  6
AUSGEZOGEN
 62
           1
  5
ED
 10
522.809817504883
 20
299.231978749593
 30
0.0
 11
567.409817504883
 21
299.231978749593
 31
0.0
  0
ARC
  8
ZEICHNUNG
  6
AUSGEZOGEN
 62
           1
  5
EE
 10
571.759811401367
 20
308.731979512533
 30
0.0
 40
5.0
 50
129.050031310328
 51
230.949968689672
  0
LINE
  8
ZEICHNUNG
  6
AUSGEZOGEN
 62
           1
  5
EF
 10
555.259811401367
 20
294.231978749593
 30
0.0
 11
555.259811401367
 21
299.231978749593
 31
0.0
  0
LINE
  8
ZEICHNUNG
  6
AUSGEZOGEN
 62
           1
  5
F0
 10
535.259811401367
 20
294.231978749593
 30
0.0
 11
535.259811401367
 21
299.231978749593
 31
0.0
  0
LINE
  8
ZEICHNUNG
  6
AUSGEZOGEN
 62
           1
  5
F1
 10
536.259811401367
 20
293.231978749593
 30
0.0
 11
554.259811401367
 21
293.231978749593
 31
0.0
  0
LINE
  8
ZEICHNUNG
  6
AUSGEZOGEN
 62
           1
  5
F2
 10
535.259811401367
 20
294.231978749593
 30
0.0
 11
536.259811401367
 21
293.231978749593
 31
0.0
  0
LINE
  8
ZEICHNUNG
  6
AUSGEZOGEN
 62
           1
  5
F3
 10
554.259811401367
 20
293.231978749593
 30
0.0
 11
555.259811401367
 21
294.231978749593
 31
0.0
  0
LINE
  8
ZEICHNUNG
  6
AUSGEZOGEN
 62
           1
  5
F4
 10
535.259811401367
 20
294.231978749593
 30
0.0
 11
555.259811401367
 21
294.231978749593
 31
0.0
  0
LINE
  8
ZEICHNUNG
  6
AUSGEZOGEN
 62
           1
  5
F5
 10
568.609817504883
 20
304.848998898093
 30
0.0
 11
521.609817504883
 21
304.849011276544
 31
0.0
  0
LINE
  8
ZEICHNUNG
  6
AUSGEZOGEN
 62
           1
  5
F6
 10
521.609817504883
 20
312.614947748521
 30
0.0
 11
568.609817504883
 21
312.614960126972
 31
0.0
  0
LINE
  8
ZEICHNUNG
  6
AUSGEZOGEN
 62
           1
  5
F7
 10
567.409817504883
 20
318.231976460775
 30
0.0
 11
568.609817504883
 21
317.031976460775
 31
0.0
  0
LINE
  8
ZEICHNUNG
  6
AUSGEZOGEN
 62
           1
  5
F8
 10
568.609817504883
 20
300.431978749593
 30
0.0
 11
567.409817504883
 21
299.231978749593
 31
0.0
  0
LINE
  8
ZEICHNUNG
  6
AUSGEZOGEN
 62
           1
  5
F9
 10
522.809817504883
 20
299.231978749593
 30
0.0
 11
521.609817504883
 21
300.431978749593
 31
0.0
  0
LINE
  8
ZEICHNUNG
  6
AUSGEZOGEN
 62
           1
  5
FA
 10
521.609817504883
 20
317.031976460775
 30
0.0
 11
522.809817504883
 21
318.231976460775
 31
0.0
  0
LINE
  8
ZEICHNUNG
  6
AUSGEZOGEN
 62
           1
  5
FB
 10
521.609817504883
 20
317.031976460775
 30
0.0
 11
568.609817504883
 21
317.031976460775
 31
0.0
  0
LINE
  8
ZEICHNUNG
  6
AUSGEZOGEN
 62
           1
  5
FC
 10
568.609817504883
 20
300.431978749593
 30
0.0
 11
521.609817504883
 21
300.431978749593
 31
0.0
  0
LINE
  8
ZEICHNUNG
  6
AUSGEZOGEN
 62
           1
  5
FD
 10
533.109817504883
 20
318.231976460775
 30
0.0
 11
533.109817504883
 21
320.731978749593
 31
0.0
  0
LINE
  8
ZEICHNUNG
  6
AUSGEZOGEN
 62
           1
  5
FE
 10
557.109817504883
 20
318.231976460775
 30
0.0
 11
557.109817504883
 21
320.731978749593
 31
0.0
  0
LINE
  8
BEMAßUNG
  6
STRICHPUNKT
 62
           2
  5
FF
 10
443.109817504883
 20
290.0
 30
0.0
 11
443.109817504883
 21
325.0
 31
0.0
  0
ARC
  8
ZEICHNUNG
  6
AUSGEZOGEN
 62
           1
  5
100
 10
416.459808349609
 20
308.731979512533
 30
0.0
 40
5.0
 50
309.050261942897
 51
50.949738057102
  0
LINE
  8
ZEICHNUNG
  6
AUSGEZOGEN
 62
           1
  5
101
 10
466.609817504883
 20
312.614959859212
 30
0.0
 11
466.609817504883
 21
317.031976460775
 31
0.0
  0
LINE
  8
ZEICHNUNG
  6
AUSGEZOGEN
 62
           1
  5
102
 10
466.609817504883
 20
300.431978749593
 30
0.0
 11
466.609817504883
 21
304.848999165853
 31
0.0
  0
LINE
  8
ZEICHNUNG
  6
AUSGEZOGEN
 62
           1
  5
103
 10
419.609817504883
 20
312.614944600423
 30
0.0
 11
419.609817504883
 21
317.031976460775
 31
0.0
  0
LINE
  8
ZEICHNUNG
  6
AUSGEZOGEN
 62
           1
  5
104
 10
419.609817504883
 20
300.431978749593
 30
0.0
 11
419.609817504883
 21
304.849014424642
 31
0.0
  0
LINE
  8
ZEICHNUNG
  6
AUSGEZOGEN
 62
           1
  5
105
 10
443.259811401367
 20
318.231976460775
 30
0.0
 11
420.809817504883
 21
318.231976460775
 31
0.0
  0
LINE
  8
ZEICHNUNG
  6
AUSGEZOGEN
 62
           1
  5
106
 10
465.409817504883
 20
318.231976460775
 30
0.0
 11
443.259811401367
 21
318.231976460775
 31
0.0
  0
LINE
  8
ZEICHNUNG
  6
AUSGEZOGEN
 62
           1
  5
107
 10
420.809817504883
 20
299.231978749593
 30
0.0
 11
465.409817504883
 21
299.231978749593
 31
0.0
  0
ARC
  8
ZEICHNUNG
  6
AUSGEZOGEN
 62
           1
  5
108
 10
469.759811401367
 20
308.731979512533
 30
0.0
 40
5.0
 50
129.050031310328
 51
230.949968689672
  0
LINE
  8
ZEICHNUNG
  6
AUSGEZOGEN
 62
           1
  5
109
 10
453.259811401367
 20
294.231978749593
 30
0.0
 11
453.259811401367
 21
299.231978749593
 31
0.0
  0
LINE
  8
ZEICHNUNG
  6
AUSGEZOGEN
 62
           1
  5
10A
 10
433.259811401367
 20
294.231978749593
 30
0.0
 11
433.259811401367
 21
299.231978749593
 31
0.0
  0
LINE
  8
ZEICHNUNG
  6
AUSGEZOGEN
 62
           1
  5
10B
 10
434.259811401367
 20
293.231978749593
 30
0.0
 11
452.259811401367
 21
293.231978749593
 31
0.0
  0
LINE
  8
ZEICHNUNG
  6
AUSGEZOGEN
 62
           1
  5
10C
 10
433.259811401367
 20
294.231978749593
 30
0.0
 11
434.259811401367
 21
293.231978749593
 31
0.0
  0
LINE
  8
ZEICHNUNG
  6
AUSGEZOGEN
 62
           1
  5
10D
 10
452.259811401367
 20
293.231978749593
 30
0.0
 11
453.259811401367
 21
294.231978749593
 31
0.0
  0
LINE
  8
ZEICHNUNG
  6
AUSGEZOGEN
 62
           1
  5
10E
 10
433.259811401367
 20
294.231978749593
 30
0.0
 11
453.259811401367
 21
294.231978749593
 31
0.0
  0
LINE
  8
ZEICHNUNG
  6
AUSGEZOGEN
 62
           1
  5
10F
 10
466.609817504883
 20
304.848998898093
 30
0.0
 11
419.609817504883
 21
304.849011276544
 31
0.0
  0
LINE
  8
ZEICHNUNG
  6
AUSGEZOGEN
 62
           1
  5
110
 10
419.609817504883
 20
312.614947748521
 30
0.0
 11
466.609817504883
 21
312.614960126972
 31
0.0
  0
LINE
  8
ZEICHNUNG
  6
AUSGEZOGEN
 62
           1
  5
111
 10
465.409817504883
 20
318.231976460775
 30
0.0
 11
466.609817504883
 21
317.031976460775
 31
0.0
  0
LINE
  8
ZEICHNUNG
  6
AUSGEZOGEN
 62
           1
  5
112
 10
466.609817504883
 20
300.431978749593
 30
0.0
 11
465.409817504883
 21
299.231978749593
 31
0.0
  0
LINE
  8
ZEICHNUNG
  6
AUSGEZOGEN
 62
           1
  5
113
 10
420.809817504883
 20
299.231978749593
 30
0.0
 11
419.609817504883
 21
300.431978749593
 31
0.0
  0
LINE
  8
ZEICHNUNG
  6
AUSGEZOGEN
 62
           1
  5
114
 10
419.609817504883
 20
317.031976460775
 30
0.0
 11
420.809817504883
 21
318.231976460775
 31
0.0
  0
LINE
  8
ZEICHNUNG
  6
AUSGEZOGEN
 62
           1
  5
115
 10
419.609817504883
 20
317.031976460775
 30
0.0
 11
466.609817504883
 21
317.031976460775
 31
0.0
  0
LINE
  8
ZEICHNUNG
  6
AUSGEZOGEN
 62
           1
  5
116
 10
466.609817504883
 20
300.431978749593
 30
0.0
 11
419.609817504883
 21
300.431978749593
 31
0.0
  0
LINE
  8
ZEICHNUNG
  6
AUSGEZOGEN
 62
           1
  5
117
 10
431.109817504883
 20
318.231976460775
 30
0.0
 11
431.109817504883
 21
320.731978749593
 31
0.0
  0
LINE
  8
ZEICHNUNG
  6
AUSGEZOGEN
 62
           1
  5
118
 10
455.109817504883
 20
318.231976460775
 30
0.0
 11
455.109817504883
 21
320.731978749593
 31
0.0
  0
ARC
  8
MITTELLINIEN
  6
AUSGEZOGEN
 62
           2
  5
119
 10
439.109817504883
 20
197.231978749593
 30
0.0
 40
5.0
 50
349.999997672743
 51
260.000000290906
  0
INSERT
  8
MITTELLINIEN
  6
AUSGEZOGEN
 62
           2
  5
11A
  2
*X5
 10
0.0
 20
0.0
 30
0.0
  0
LINE
  8
ZEICHNUNG
  6
AUSGEZOGEN
 62
           1
  5
11B
 10
246.109817504883
 20
284.631978749593
 30
0.0
 11
580.873692327931
 21
284.631978749593
 31
0.0
  0
LINE
  8
ZEICHNUNG
  6
AUSGEZOGEN
 62
           1
  5
11C
 10
246.109817504883
 20
284.631978749593
 30
0.0
 11
246.109817504883
 21
318.631978749593
 31
0.0
  0
LINE
  8
BEMAßUNG
  6
STRICHPUNKT
 62
           2
  5
11D
 10
580.476182399791
 20
280.088419480094
 30
0.0
 11
584.383266397297
 21
324.746593922868
 31
0.0
  0
LINE
  8
ZEICHNUNG
  6
AUSGEZOGEN
 62
           1
  5
11E
 10
557.109817504883
 20
318.631978749593
 30
0.0
 11
583.848306887812
 21
318.631978749593
 31
0.0
  0
LINE
  8
ZEICHNUNG
  6
AUSGEZOGEN
 62
           1
  5
11F
 10
455.109817504883
 20
318.631978749593
 30
0.0
 11
533.109817504883
 21
318.631978749593
 31
0.0
  0
LINE
  8
ZEICHNUNG
  6
AUSGEZOGEN
 62
           1
  5
120
 10
246.109817504883
 20
318.631978749593
 30
0.0
 11
431.109817504883
 21
318.631978749593
 31
0.0
  0
LINE
  8
ZEICHNUNG
  6
AUSGEZOGEN
 62
           1
  5
121
 10
568.609817504883
 20
316.231977223714
 30
0.0
 11
583.638333961853
 21
316.231977223714
 31
0.0
  0
LINE
  8
ZEICHNUNG
  6
AUSGEZOGEN
 62
           1
  5
122
 10
466.609817504883
 20
316.231977223714
 30
0.0
 11
521.609817504883
 21
316.231977223714
 31
0.0
  0
LINE
  8
ZEICHNUNG
  6
AUSGEZOGEN
 62
           1
  5
123
 10
246.109817504883
 20
316.231977223714
 30
0.0
 11
419.609817504883
 21
316.231977223714
 31
0.0
  0
LINE
  8
ZEICHNUNG
  6
AUSGEZOGEN
 62
           1
  5
124
 10
568.609817504883
 20
300.852700948079
 30
0.0
 11
582.292821634501
 21
300.852700948079
 31
0.0
  0
LINE
  8
ZEICHNUNG
  6
AUSGEZOGEN
 62
           1
  5
125
 10
466.609817504883
 20
300.852700948079
 30
0.0
 11
521.609817504883
 21
300.852700948079
 31
0.0
  0
LINE
  8
ZEICHNUNG
  6
AUSGEZOGEN
 62
           1
  5
126
 10
246.109817504883
 20
300.852700948079
 30
0.0
 11
419.609817504883
 21
300.852700948079
 31
0.0
  0
LINE
  8
ZEICHNUNG
  6
AUSGEZOGEN
 62
           1
  5
127
 10
555.259811401367
 20
297.09992548334
 30
0.0
 11
581.964496324578
 21
297.09992548334
 31
0.0
  0
LINE
  8
ZEICHNUNG
  6
AUSGEZOGEN
 62
           1
  5
128
 10
453.259811401367
 20
297.09992548334
 30
0.0
 11
535.259811401367
 21
297.09992548334
 31
0.0
  0
LINE
  8
ZEICHNUNG
  6
AUSGEZOGEN
 62
           1
  5
129
 10
246.109817504883
 20
297.09992548334
 30
0.0
 11
433.259811401367
 21
297.09992548334
 31
0.0
  0
LINE
  8
ZEICHNUNG
  6
AUSGEZOGEN
 62
           1
  5
12A
 10
568.609817504883
 20
313.648465871175
 30
0.0
 11
583.412306006415
 21
313.648465871175
 31
0.0
  0
LINE
  8
ZEICHNUNG
  6
AUSGEZOGEN
 62
           1
  5
12B
 10
466.609817504883
 20
313.648465871175
 30
0.0
 11
521.609817504883
 21
313.648465871175
 31
0.0
  0
LINE
  8
ZEICHNUNG
  6
AUSGEZOGEN
 62
           1
  5
12C
 10
246.109817504883
 20
313.648465871175
 30
0.0
 11
419.609817504883
 21
313.648465871175
 31
0.0
  0
LINE
  8
ZEICHNUNG
  6
AUSGEZOGEN
 62
           1
  5
12D
 10
568.609817504883
 20
303.815488576253
 30
0.0
 11
582.552031964401
 21
303.815488576253
 31
0.0
  0
LINE
  8
ZEICHNUNG
  6
AUSGEZOGEN
 62
           1
  5
12E
 10
466.609817504883
 20
303.815488576253
 30
0.0
 11
521.609817504883
 21
303.815488576253
 31
0.0
  0
LINE
  8
ZEICHNUNG
  6
AUSGEZOGEN
 62
           1
  5
12F
 10
246.109817504883
 20
303.815488576253
 30
0.0
 11
419.609817504883
 21
303.815488576253
 31
0.0
  0
LINE
  8
BEMAßUNG
  6
STRICHPUNKT
 62
           2
  5
130
 10
369.109817504883
 20
278.9
 30
0.0
 11
369.109817504883
 21
323.9
 31
0.0
  0
LINE
  8
ZEICHNUNG
  6
AUSGEZOGEN
 62
           1
  5
131
 10
246.109817504883
 20
169.231978749593
 30
0.0
 11
246.109817504883
 21
225.231978749593
 31
0.0
  0
LINE
  8
ZEICHNUNG
  6
AUSGEZOGEN
 62
           1
  5
132
 10
569.109817504883
 20
225.231978749593
 30
0.0
 11
763.258952716341
 21
225.231978749593
 31
0.0
  0
LINE
  8
UNSICHTBARE
  6
VERDECKT
 62
           2
  5
133
 10
419.109817504883
 20
225.231978749593
 30
0.0
 11
569.109817504883
 21
225.231978749593
 31
0.0
  0
LINE
  8
ZEICHNUNG
  6
AUSGEZOGEN
 62
           1
  5
134
 10
246.109817504883
 20
225.231978749593
 30
0.0
 11
419.109817504883
 21
225.231978749593
 31
0.0
  0
LINE
  8
ZEICHNUNG
  6
AUSGEZOGEN
 62
           1
  5
135
 10
569.109817504883
 20
169.231978749593
 30
0.0
 11
758.359587558889
 21
169.231978749593
 31
0.0
  0
LINE
  8
UNSICHTBARE
  6
VERDECKT
 62
           2
  5
136
 10
419.109817504883
 20
169.231978749593
 30
0.0
 11
569.109817504883
 21
169.231978749593
 31
0.0
  0
LINE
  8
ZEICHNUNG
  6
AUSGEZOGEN
 62
           1
  5
137
 10
246.109817504883
 20
169.231978749593
 30
0.0
 11
419.109817504883
 21
169.231978749593
 31
0.0
  0
LINE
  8
ZEICHNUNG
  6
AUSGEZOGEN
 62
           1
  5
138
 10
569.109817504883
 20
206.481978749593
 30
0.0
 11
761.61854027523
 21
206.481978749593
 31
0.0
  0
LINE
  8
UNSICHTBARE
  6
VERDECKT
 62
           2
  5
139
 10
419.109817504883
 20
206.481978749593
 30
0.0
 11
569.109817504883
 21
206.481978749593
 31
0.0
  0
LINE
  8
ZEICHNUNG
  6
AUSGEZOGEN
 62
           1
  5
13A
 10
246.109817504883
 20
206.481978749593
 30
0.0
 11
419.109817504883
 21
206.481978749593
 31
0.0
  0
LINE
  8
ZEICHNUNG
  6
AUSGEZOGEN
 62
           1
  5
13B
 10
569.109817504883
 20
187.981978749593
 30
0.0
 11
760.0
 21
187.981978749593
 31
0.0
  0
LINE
  8
UNSICHTBARE
  6
VERDECKT
 62
           2
  5
13C
 10
419.109817504883
 20
187.981978749593
 30
0.0
 11
569.109817504883
 21
187.981978749593
 31
0.0
  0
LINE
  8
ZEICHNUNG
  6
AUSGEZOGEN
 62
           1
  5
13D
 10
246.109817504883
 20
187.981978749593
 30
0.0
 11
419.109817504883
 21
187.981978749593
 31
0.0
  0
CIRCLE
  8
ZEICHNUNG
  6
AUSGEZOGEN
 62
           1
  5
13E
 10
369.109817504883
 20
197.231978749593
 30
0.0
 40
5.5
  0
LINE
  8
BEMAßUNG
  6
STRICHPUNKT
 62
           2
  5
13F
 10
619.109817504883
 20
210.0
 30
0.0
 11
619.109817504883
 21
185.0
 31
0.0
  0
LINE
  8
BEMAßUNG
  6
STRICHPUNKT
 62
           2
  5
140
 10
757.722412661187
 20
161.949036342855
 30
0.0
 11
763.593862140179
 21
229.060010980755
 31
0.0
  0
CIRCLE
  8
ZEICHNUNG
  6
AUSGEZOGEN
 62
           1
  5
141
 10
619.109817504883
 20
197.231978749593
 30
0.0
 40
5.5
  0
LINE
  8
ZEICHNUNG
  6
AUSGEZOGEN
 62
           1
  5
142
 10
569.109817504883
 20
218.575057362874
 30
0.0
 11
762.676547561019
 21
218.575057362874
 31
0.0
  0
LINE
  8
ZEICHNUNG
  6
AUSGEZOGEN
 62
           1
  5
143
 10
246.109817504883
 20
218.575057362874
 30
0.0
 11
419.109817504883
 21
218.575057362874
 31
0.0
  0
LINE
  8
ZEICHNUNG
  6
AUSGEZOGEN
 62
           1
  5
144
 10
569.109817504883
 20
222.731978749593
 30
0.0
 11
763.040231057526
 21
222.731978749593
 31
0.0
  0
LINE
  8
ZEICHNUNG
  6
AUSGEZOGEN
 62
           1
  5
145
 10
246.109817504883
 20
222.731978749593
 30
0.0
 11
419.109817504883
 21
222.731978749593
 31
0.0
  0
LINE
  8
ZEICHNUNG
  6
AUSGEZOGEN
 62
           1
  5
146
 10
569.109817504883
 20
175.888900136312
 30
0.0
 11
762.676547561019
 21
175.888900136312
 31
0.0
  0
LINE
  8
ZEICHNUNG
  6
AUSGEZOGEN
 62
           1
  5
147
 10
246.109817504883
 20
175.888900136312
 30
0.0
 11
419.109817504883
 21
175.888900136312
 31
0.0
  0
LINE
  8
ZEICHNUNG
  6
AUSGEZOGEN
 62
           1
  5
148
 10
569.109817504883
 20
171.731978749593
 30
0.0
 11
763.040231057526
 21
171.731978749593
 31
0.0
  0
LINE
  8
ZEICHNUNG
  6
AUSGEZOGEN
 62
           1
  5
149
 10
246.109817504883
 20
171.731978749593
 30
0.0
 11
419.109817504883
 21
171.731978749593
 31
0.0
  0
LINE
  8
BEMAßUNG
  6
STRICHPUNKT
 62
           2
  5
14A
 10
369.109817504883
 20
185.0
 30
0.0
 11
369.109817504883
 21
210.0
 31
0.0
  0
LINE
  8
UNSICHTBARE
  6
VERDECKT
 62
           2
  5
14B
 10
759.109817504883
 20
334.031978749593
 30
0.0
 11
759.109817504883
 21
345.031978749593
 31
0.0
  0
LINE
  8
UNSICHTBARE
  6
VERDECKT
 62
           2
  5
14C
 10
729.109817504883
 20
334.031978749593
 30
0.0
 11
729.109817504883
 21
345.031978749593
 31
0.0
  0
LINE
  8
UNSICHTBARE
  6
VERDECKT
 62
           2
  5
14D
 10
759.109817504883
 20
334.031978749593
 30
0.0
 11
729.109817504883
 21
334.031978749593
 31
0.0
  0
CIRCLE
  8
ZEICHNUNG
  6
AUSGEZOGEN
 62
           1
  5
14E
 10
545.109817504883
 20
147.581978749593
 30
0.0
 40
15.0
  0
CIRCLE
  8
ZEICHNUNG
  6
AUSGEZOGEN
 62
           1
  5
14F
 10
443.109817504883
 20
147.581978749593
 30
0.0
 40
15.0
  0
CIRCLE
  8
ZEICHNUNG
  6
AUSGEZOGEN
 62
           1
  5
150
 10
545.109817504883
 20
147.581978749593
 30
0.0
 40
12.0
  0
CIRCLE
  8
ZEICHNUNG
  6
AUSGEZOGEN
 62
           1
  5
151
 10
443.109817504883
 20
147.581978749593
 30
0.0
 40
12.0
  0
CIRCLE
  8
ZEICHNUNG
  6
AUSGEZOGEN
 62
           1
  5
152
 10
545.109817504883
 20
246.881978749593
 30
0.0
 40
6.0
  0
ARC
  8
MITTELLINIEN
  6
AUSGEZOGEN
 62
           2
  5
153
 10
545.109817504883
 20
246.881978749593
 30
0.0
 40
5.400000095367
 50
90.000001252239
 51
90.000001252239
  0
CIRCLE
  8
ZEICHNUNG
  6
AUSGEZOGEN
 62
           1
  5
154
 10
443.109817504883
 20
246.881978749593
 30
0.0
 40
6.0
  0
ARC
  8
MITTELLINIEN
  6
AUSGEZOGEN
 62
           2
  5
155
 10
443.109817504883
 20
246.881978749593
 30
0.0
 40
5.400000095367
 50
90.000001252239
 51
90.000001252239
  0
ENDSEC
  0
EOF
