  0
SECTION
  2
HEADER
  9
$LIMMIN
 10
253.799454
 20
327.946747
  9
$LIMMAX
 10
346.824982
 20
364.946747
  9
$EXTMIN
 10
253.799454
 20
327.946747
  9
$EXTMAX
 10
346.824982
 20
364.946747
  0
ENDSEC
  0
SECTION
  2
TABLES
  0
TABLE
  2
LTYPE
 70
     3
  0
LTYPE
  2
CONTINUOUS
 70
    64
  3
Ausgezogene Linie
 72
    65
 73
     0
 40
0.0
  0
LTYPE
  2
DASHED
 70
    64
  3
__ __ __ __ __ __ __ __ __ __ __ __ __ __ __
 72
    65
 73
     2
 40
0.75
 49
0.5
 49
-0.25
  0
LTYPE
  2
DASHDOT
 70
    64
  3
__ . __ . __ . __ . __ . __ . __ . __ . __ . __
 72
    65
 73
     4
 40
1.0
 49
0.5
 49
-0.25
 49
0.0
 49
-0.25
  0
ENDTAB
  0
TABLE
  2
LAYER
 70
     4
  0
LAYER
  2
LC-003-002-----0
 70
    64
 62
     7
  6
CONTINUOUS
  0
LAYER
  2
LC-005-002-RND-0
 70
    64
 62
     7
  6
CONTINUOUS
  0
LAYER
  2
LC-004-006-----0
 70
    64
 62
     7
  6
CONTINUOUS
  0
LAYER
  2
LC-006-012-----0
 70
    64
 62
     7
  6
CONTINUOUS
  0
ENDTAB
  0
TABLE
  2
STYLE
 70
     1
  0
STYLE
  2
TXT8
 70
    64
 40
0.0
 41
1.0
 50
0.0
 71
     0
 42
3.500000
  3
TXT8
  4

  0
ENDTAB
  0
ENDSEC
  0
SECTION
  2
BLOCKS
  0
ENDSEC
  0
SECTION
  2
ENTITIES
  0
LINE
  8
LC-005-002-RND-0
 62
     2
  6
DASHDOT
 10
253.799454
 20
346.446747
 11
346.824982
 21
346.446747
  0
LINE
  8
LC-003-002-----0
 62
     1
  6
CONTINUOUS
 10
272.077972
 20
364.946747
 11
324.077972
 21
364.946747
  0
LINE
  8
LC-003-002-----0
 62
     1
  6
CONTINUOUS
 10
272.077972
 20
327.946747
 11
324.077972
 21
327.946747
  0
LINE
  8
LC-003-002-----0
 62
     1
  6
CONTINUOUS
 10
271.077972
 20
363.946747
 11
271.077972
 21
328.946747
  0
LINE
  8
LC-003-002-----0
 62
     1
  6
CONTINUOUS
 10
325.077972
 20
363.946747
 11
325.077972
 21
328.946747
  0
ARC
  8
LC-003-002-----0
 62
     1
  6
CONTINUOUS
 10
272.077972
 20
363.946747
 40
1.000000
 50
90.000003
 51
180.000009
  0
ARC
  8
LC-003-002-----0
 62
     1
  6
CONTINUOUS
 10
272.077972
 20
328.946747
 40
1.000000
 50
180.000009
 51
269.999997
  0
ARC
  8
LC-003-002-----0
 62
     1
  6
CONTINUOUS
 10
324.077972
 20
328.946747
 40
1.000000
 50
269.999997
 51
0.000000
  0
ARC
  8
LC-003-002-----0
 62
     1
  6
CONTINUOUS
 10
324.077972
 20
363.946747
 40
1.000000
 50
0.000000
 51
90.000003
  0
LINE
  8
LC-003-002-----0
 62
     1
  6
CONTINUOUS
 10
257.348602
 20
358.946747
 11
271.077972
 21
358.946747
  0
LINE
  8
LC-003-002-----0
 62
     1
  6
CONTINUOUS
 10
256.638184
 20
333.946747
 11
271.077972
 21
333.946747
  0
LINE
  8
LC-006-012-----0
 62
     2
  6
CONTINUOUS
 10
256.638184
 20
333.946747
 11
257.329437
 21
340.077057
  0
LINE
  8
LC-006-012-----0
 62
     2
  6
CONTINUOUS
 10
257.329437
 20
340.077057
 11
256.795135
 21
352.811493
  0
LINE
  8
LC-006-012-----0
 62
     2
  6
CONTINUOUS
 10
256.795135
 20
352.811493
 11
257.348602
 21
358.946747
  0
LINE
  8
LC-006-012-----0
 62
     2
  6
CONTINUOUS
 10
344.443542
 20
333.946747
 11
343.763031
 21
339.189453
  0
LINE
  8
LC-006-012-----0
 62
     2
  6
CONTINUOUS
 10
343.763031
 20
339.189453
 11
343.896606
 21
351.529419
  0
LINE
  8
LC-006-012-----0
 62
     2
  6
CONTINUOUS
 10
343.896606
 20
351.529419
 11
342.515167
 21
358.946747
  0
LINE
  8
LC-004-006-----0
 62
     2
  6
DASHED
 10
271.077972
 20
358.946747
 11
325.077972
 21
358.946747
  0
LINE
  8
LC-003-002-----0
 62
     1
  6
CONTINUOUS
 10
325.077972
 20
358.946747
 11
342.515167
 21
358.946747
  0
LINE
  8
LC-004-006-----0
 62
     2
  6
DASHED
 10
271.077972
 20
333.946747
 11
325.077972
 21
333.946747
  0
LINE
  8
LC-003-002-----0
 62
     1
  6
CONTINUOUS
 10
325.077972
 20
333.946747
 11
344.443542
 21
333.946747
  0
ENDSEC
  0
EOF
