  0
SECTION
  2
HEADER
  9
$LIMMIN
 10
61.186710
 20
493.781586
  9
$LIMMAX
 10
194.986832
 20
534.780579
  9
$EXTMIN
 10
61.186710
 20
493.781586
  9
$EXTMAX
 10
194.986832
 20
534.780579
  0
ENDSEC
  0
SECTION
  2
TABLES
  0
TABLE
  2
LTYPE
 70
     3
  0
LTYPE
  2
CONTINUOUS
 70
    64
  3
Ausgezogene Linie
 72
    65
 73
     0
 40
0.0
  0
LTYPE
  2
DASHED
 70
    64
  3
__ __ __ __ __ __ __ __ __ __ __ __ __ __ __
 72
    65
 73
     2
 40
0.75
 49
0.5
 49
-0.25
  0
LTYPE
  2
DASHDOT
 70
    64
  3
__ . __ . __ . __ . __ . __ . __ . __ . __ . __
 72
    65
 73
     4
 40
1.0
 49
0.5
 49
-0.25
 49
0.0
 49
-0.25
  0
ENDTAB
  0
TABLE
  2
LAYER
 70
     4
  0
LAYER
  2
LC-003-002-----0
 70
    64
 62
     7
  6
CONTINUOUS
  0
LAYER
  2
LC-004-006-----0
 70
    64
 62
     7
  6
CONTINUOUS
  0
LAYER
  2
LC-006-012-----0
 70
    64
 62
     7
  6
CONTINUOUS
  0
LAYER
  2
LC-005-002-RND-0
 70
    64
 62
     7
  6
CONTINUOUS
  0
ENDTAB
  0
TABLE
  2
STYLE
 70
     1
  0
STYLE
  2
TXT8
 70
    64
 40
0.0
 41
1.0
 50
0.0
 71
     0
 42
3.500000
  3
TXT8
  4

  0
ENDTAB
  0
ENDSEC
  0
SECTION
  2
BLOCKS
  0
ENDSEC
  0
SECTION
  2
ENTITIES
  0
LINE
  8
LC-004-006-----0
 62
     2
  6
DASHDOT
 10
61.186710
 20
513.896667
 11
116.128448
 21
513.896667
  0
LINE
  8
LC-003-002-----0
 62
     1
  6
CONTINUOUS
 10
74.894989
 20
529.396667
 11
74.894989
 21
498.396667
  0
LINE
  8
LC-003-002-----0
 62
     1
  6
CONTINUOUS
 10
75.394989
 20
529.896667
 11
79.394989
 21
529.896667
  0
LINE
  8
LC-003-002-----0
 62
     1
  6
CONTINUOUS
 10
79.394989
 20
497.896667
 11
75.394989
 21
497.896667
  0
LINE
  8
LC-003-002-----0
 62
     1
  6
CONTINUOUS
 10
79.894989
 20
529.396667
 11
79.894989
 21
498.396667
  0
LINE
  8
LC-003-002-----0
 62
     1
  6
CONTINUOUS
 10
80.394989
 20
521.896667
 11
99.394989
 21
521.896667
  0
LINE
  8
LC-003-002-----0
 62
     1
  6
CONTINUOUS
 10
80.394989
 20
505.896667
 11
99.394989
 21
505.896667
  0
LINE
  8
LC-003-002-----0
 62
     1
  6
CONTINUOUS
 10
99.894989
 20
521.396667
 11
99.894989
 21
506.396667
  0
LINE
  8
LC-003-002-----0
 62
     1
  6
CONTINUOUS
 10
63.167259
 20
517.896667
 11
74.894989
 21
517.896667
  0
LINE
  8
LC-003-002-----0
 62
     1
  6
CONTINUOUS
 10
63.080212
 20
509.896667
 11
74.894989
 21
509.896667
  0
LINE
  8
LC-005-002-RND-0
 62
     2
  6
CONTINUOUS
 10
63.080212
 20
509.896667
 11
63.568634
 21
511.688385
  0
LINE
  8
LC-005-002-RND-0
 62
     2
  6
CONTINUOUS
 10
63.568634
 20
511.688385
 11
62.630302
 21
515.913330
  0
LINE
  8
LC-005-002-RND-0
 62
     2
  6
CONTINUOUS
 10
62.630302
 20
515.913330
 11
63.167259
 21
517.896667
  0
LINE
  8
LC-005-002-RND-0
 62
     2
  6
CONTINUOUS
 10
113.637222
 20
509.896667
 11
114.087730
 21
511.436462
  0
LINE
  8
LC-005-002-RND-0
 62
     2
  6
CONTINUOUS
 10
114.087730
 20
511.436462
 11
112.644142
 21
515.406860
  0
LINE
  8
LC-005-002-RND-0
 62
     2
  6
CONTINUOUS
 10
112.644142
 20
515.406860
 11
113.043053
 21
517.896667
  0
LINE
  8
LC-006-012-----0
 62
     2
  6
DASHED
 10
74.894989
 20
517.896667
 11
99.894989
 21
517.896667
  0
LINE
  8
LC-003-002-----0
 62
     1
  6
CONTINUOUS
 10
99.894989
 20
517.896667
 11
113.043053
 21
517.896667
  0
LINE
  8
LC-006-012-----0
 62
     2
  6
DASHED
 10
74.894989
 20
509.896667
 11
99.894989
 21
509.896667
  0
LINE
  8
LC-003-002-----0
 62
     1
  6
CONTINUOUS
 10
99.894989
 20
509.896667
 11
113.637222
 21
509.896667
  0
LINE
  8
LC-004-006-----0
 62
     2
  6
DASHDOT
 10
152.620819
 20
513.896667
 11
194.986832
 21
513.896667
  0
LINE
  8
LC-004-006-----0
 62
     2
  6
DASHDOT
 10
173.453369
 20
534.780579
 11
173.453369
 21
493.781586
  0
CIRCLE
  8
LC-003-002-----0
 62
     1
  6
CONTINUOUS
 10
173.453369
 20
513.896667
 40
4.000000
  0
CIRCLE
  8
LC-003-002-----0
 62
     1
  6
CONTINUOUS
 10
173.453369
 20
513.896667
 40
16.000000
  0
CIRCLE
  8
LC-006-012-----0
 62
     2
  6
DASHED
 10
173.453369
 20
513.896667
 40
8.000000
  0
CIRCLE
  8
LC-004-006-----0
 62
     2
  6
DASHDOT
 10
173.453369
 20
513.896667
 40
12.000000
  0
CIRCLE
  8
LC-003-002-----0
 62
     1
  6
CONTINUOUS
 10
161.453369
 20
513.896667
 40
3.000000
  0
CIRCLE
  8
LC-003-002-----0
 62
     1
  6
CONTINUOUS
 10
161.453369
 20
513.896667
 40
1.800000
  0
CIRCLE
  8
LC-003-002-----0
 62
     1
  6
CONTINUOUS
 10
173.453369
 20
525.896667
 40
3.000000
  0
CIRCLE
  8
LC-003-002-----0
 62
     1
  6
CONTINUOUS
 10
173.453369
 20
525.896667
 40
1.800000
  0
CIRCLE
  8
LC-003-002-----0
 62
     1
  6
CONTINUOUS
 10
173.453369
 20
501.896667
 40
3.000000
  0
CIRCLE
  8
LC-003-002-----0
 62
     1
  6
CONTINUOUS
 10
173.453369
 20
501.896667
 40
1.800000
  0
CIRCLE
  8
LC-003-002-----0
 62
     1
  6
CONTINUOUS
 10
185.453369
 20
513.896667
 40
3.000000
  0
CIRCLE
  8
LC-003-002-----0
 62
     1
  6
CONTINUOUS
 10
185.453369
 20
513.896667
 40
1.800000
  0
LINE
  8
LC-004-006-----0
 62
     2
  6
DASHDOT
 10
82.951057
 20
525.896667
 11
72.104584
 21
525.896667
  0
LINE
  8
LC-006-012-----0
 62
     2
  6
DASHED
 10
78.394989
 20
528.896667
 11
74.894989
 21
528.896667
  0
LINE
  8
LC-006-012-----0
 62
     2
  6
DASHED
 10
79.894989
 20
527.696655
 11
78.394989
 21
527.696655
  0
LINE
  8
LC-006-012-----0
 62
     2
  6
DASHED
 10
78.394989
 20
528.896667
 11
78.394989
 21
522.896667
  0
LINE
  8
LC-006-012-----0
 62
     2
  6
DASHED
 10
79.894989
 20
524.096680
 11
78.394989
 21
524.096680
  0
LINE
  8
LC-006-012-----0
 62
     2
  6
DASHED
 10
78.394989
 20
522.896667
 11
74.894989
 21
522.896667
  0
LINE
  8
LC-006-012-----0
 62
     2
  6
DASHED
 10
78.394989
 20
516.896667
 11
74.894989
 21
516.896667
  0
LINE
  8
LC-006-012-----0
 62
     2
  6
DASHED
 10
79.894989
 20
515.696655
 11
78.394989
 21
515.696655
  0
LINE
  8
LC-006-012-----0
 62
     2
  6
DASHED
 10
78.394989
 20
516.896667
 11
78.394989
 21
510.896667
  0
LINE
  8
LC-006-012-----0
 62
     2
  6
DASHED
 10
79.894989
 20
512.096680
 11
78.394989
 21
512.096680
  0
LINE
  8
LC-006-012-----0
 62
     2
  6
DASHED
 10
78.394989
 20
510.896667
 11
74.894989
 21
510.896667
  0
LINE
  8
LC-004-006-----0
 62
     2
  6
DASHDOT
 10
82.951057
 20
501.896667
 11
72.104584
 21
501.896667
  0
LINE
  8
LC-006-012-----0
 62
     2
  6
DASHED
 10
78.394989
 20
498.896667
 11
74.894989
 21
498.896667
  0
LINE
  8
LC-006-012-----0
 62
     2
  6
DASHED
 10
79.894989
 20
500.096680
 11
78.394989
 21
500.096680
  0
LINE
  8
LC-006-012-----0
 62
     2
  6
DASHED
 10
78.394989
 20
498.896667
 11
78.394989
 21
504.896667
  0
LINE
  8
LC-006-012-----0
 62
     2
  6
DASHED
 10
79.894989
 20
503.696686
 11
78.394989
 21
503.696686
  0
LINE
  8
LC-006-012-----0
 62
     2
  6
DASHED
 10
78.394989
 20
504.896667
 11
74.894989
 21
504.896667
  0
LINE
  8
LC-003-002-----0
 62
     1
  6
CONTINUOUS
 10
75.394989
 20
497.896667
 11
74.894989
 21
498.396667
  0
LINE
  8
LC-003-002-----0
 62
     1
  6
CONTINUOUS
 10
75.394989
 20
529.896667
 11
74.894989
 21
529.396667
  0
LINE
  8
LC-003-002-----0
 62
     1
  6
CONTINUOUS
 10
75.394989
 20
497.896667
 11
75.394989
 21
529.896667
  0
LINE
  8
LC-003-002-----0
 62
     1
  6
CONTINUOUS
 10
79.394989
 20
529.896667
 11
79.894989
 21
529.396667
  0
LINE
  8
LC-003-002-----0
 62
     1
  6
CONTINUOUS
 10
79.894989
 20
498.396667
 11
79.394989
 21
497.896667
  0
LINE
  8
LC-003-002-----0
 62
     1
  6
CONTINUOUS
 10
79.394989
 20
529.896667
 11
79.394989
 21
497.896667
  0
ARC
  8
LC-003-002-----0
 62
     1
  6
CONTINUOUS
 10
99.394989
 20
521.396667
 40
0.500000
 50
0.000000
 51
90.000003
  0
ARC
  8
LC-003-002-----0
 62
     1
  6
CONTINUOUS
 10
99.394989
 20
506.396667
 40
0.500000
 50
269.999997
 51
0.000000
  0
LINE
  8
LC-003-002-----0
 62
     1
  6
CONTINUOUS
 10
80.394989
 20
521.896667
 11
80.394989
 21
505.896667
  0
LINE
  8
LC-003-002-----0
 62
     1
  6
CONTINUOUS
 10
79.894989
 20
506.396667
 11
80.394989
 21
506.396667
  0
LINE
  8
LC-003-002-----0
 62
     1
  6
CONTINUOUS
 10
79.894989
 20
521.396667
 11
80.394989
 21
521.396667
  0
CIRCLE
  8
LC-003-002-----0
 62
     1
  6
CONTINUOUS
 10
173.453369
 20
513.896667
 40
15.500000
  0
ENDSEC
  0
EOF
