  0
SECTION
  2
HEADER
  9
$LIMMIN
 10
58.062080
 20
226.564774
  9
$LIMMAX
 10
227.629471
 20
282.043823
  9
$EXTMIN
 10
58.062080
 20
226.564774
  9
$EXTMAX
 10
227.629471
 20
282.043823
  0
ENDSEC
  0
SECTION
  2
TABLES
  0
TABLE
  2
LTYPE
 70
     3
  0
LTYPE
  2
CONTINUOUS
 70
    64
  3
Ausgezogene Linie
 72
    65
 73
     0
 40
0.0
  0
LTYPE
  2
DASHED
 70
    64
  3
__ __ __ __ __ __ __ __ __ __ __ __ __ __ __
 72
    65
 73
     2
 40
0.75
 49
0.5
 49
-0.25
  0
LTYPE
  2
DASHDOT
 70
    64
  3
__ . __ . __ . __ . __ . __ . __ . __ . __ . __
 72
    65
 73
     4
 40
1.0
 49
0.5
 49
-0.25
 49
0.0
 49
-0.25
  0
ENDTAB
  0
TABLE
  2
LAYER
 70
     4
  0
LAYER
  2
LC-003-002-----0
 70
    64
 62
     7
  6
CONTINUOUS
  0
LAYER
  2
LC-004-006-----0
 70
    64
 62
     7
  6
CONTINUOUS
  0
LAYER
  2
LC-006-012-----0
 70
    64
 62
     7
  6
CONTINUOUS
  0
LAYER
  2
LC-005-002-RND-0
 70
    64
 62
     7
  6
CONTINUOUS
  0
ENDTAB
  0
TABLE
  2
STYLE
 70
     1
  0
STYLE
  2
TXT8
 70
    64
 40
0.0
 41
1.0
 50
0.0
 71
     0
 42
3.500000
  3
TXT8
  4

  0
ENDTAB
  0
ENDSEC
  0
SECTION
  2
BLOCKS
  0
ENDSEC
  0
SECTION
  2
ENTITIES
  0
LINE
  8
LC-004-006-----0
 62
     2
  6
DASHDOT
 10
58.062080
 20
254.131790
 11
133.470657
 21
254.131790
  0
LINE
  8
LC-003-002-----0
 62
     1
  6
CONTINUOUS
 10
81.394989
 20
267.131775
 11
110.394989
 21
267.131775
  0
LINE
  8
LC-003-002-----0
 62
     1
  6
CONTINUOUS
 10
81.394989
 20
241.131790
 11
110.394989
 21
241.131790
  0
LINE
  8
LC-003-002-----0
 62
     1
  6
CONTINUOUS
 10
74.894989
 20
276.631775
 11
74.894989
 21
231.631805
  0
LINE
  8
LC-003-002-----0
 62
     1
  6
CONTINUOUS
 10
80.894989
 20
276.631775
 11
80.894989
 21
231.631805
  0
LINE
  8
LC-003-002-----0
 62
     1
  6
CONTINUOUS
 10
110.894989
 20
266.631775
 11
110.894989
 21
241.631805
  0
LINE
  8
LC-003-002-----0
 62
     1
  6
CONTINUOUS
 10
80.394989
 20
277.131775
 11
75.394989
 21
277.131775
  0
LINE
  8
LC-003-002-----0
 62
     1
  6
CONTINUOUS
 10
80.394989
 20
231.131790
 11
75.394989
 21
231.131790
  0
LINE
  8
LC-003-002-----0
 62
     1
  6
CONTINUOUS
 10
61.525486
 20
262.131775
 11
74.894989
 21
262.131775
  0
LINE
  8
LC-003-002-----0
 62
     1
  6
CONTINUOUS
 10
60.118702
 20
246.131790
 11
74.894989
 21
246.131790
  0
LINE
  8
LC-005-002-RND-0
 62
     2
  6
CONTINUOUS
 10
60.118702
 20
246.131790
 11
61.155022
 21
249.821808
  0
LINE
  8
LC-005-002-RND-0
 62
     2
  6
CONTINUOUS
 10
61.155022
 20
249.821808
 11
60.034916
 21
257.806976
  0
LINE
  8
LC-005-002-RND-0
 62
     2
  6
CONTINUOUS
 10
60.034916
 20
257.806976
 11
61.525486
 21
262.131775
  0
LINE
  8
LC-005-002-RND-0
 62
     2
  6
CONTINUOUS
 10
130.556686
 20
246.131790
 11
131.403870
 21
249.683090
  0
LINE
  8
LC-005-002-RND-0
 62
     2
  6
CONTINUOUS
 10
131.403870
 20
249.683090
 11
130.377701
 21
257.806976
  0
LINE
  8
LC-005-002-RND-0
 62
     2
  6
CONTINUOUS
 10
130.377701
 20
257.806976
 11
130.958939
 21
262.131775
  0
LINE
  8
LC-006-012-----0
 62
     2
  6
DASHED
 10
74.894989
 20
262.131775
 11
110.894989
 21
262.131775
  0
LINE
  8
LC-003-002-----0
 62
     1
  6
CONTINUOUS
 10
110.894989
 20
262.131775
 11
130.958939
 21
262.131775
  0
LINE
  8
LC-006-012-----0
 62
     2
  6
DASHED
 10
74.894989
 20
246.131790
 11
110.894989
 21
246.131790
  0
LINE
  8
LC-003-002-----0
 62
     1
  6
CONTINUOUS
 10
110.894989
 20
246.131790
 11
130.556686
 21
246.131790
  0
LINE
  8
LC-004-006-----0
 62
     2
  6
DASHDOT
 10
172.757751
 20
254.131790
 11
227.629471
 21
254.131790
  0
LINE
  8
LC-004-006-----0
 62
     2
  6
DASHDOT
 10
201.063049
 20
282.043823
 11
201.063049
 21
226.564774
  0
CIRCLE
  8
LC-003-002-----0
 62
     1
  6
CONTINUOUS
 10
201.063049
 20
254.131790
 40
8.000000
  0
CIRCLE
  8
LC-003-002-----0
 62
     1
  6
CONTINUOUS
 10
201.063049
 20
254.131790
 40
23.000000
  0
CIRCLE
  8
LC-006-012-----0
 62
     2
  6
DASHED
 10
201.063049
 20
254.131790
 40
13.000000
  0
CIRCLE
  8
LC-004-006-----0
 62
     2
  6
DASHDOT
 10
201.063049
 20
254.131790
 40
18.000000
  0
CIRCLE
  8
LC-003-002-----0
 62
     1
  6
CONTINUOUS
 10
201.063049
 20
272.131775
 40
4.000000
  0
CIRCLE
  8
LC-003-002-----0
 62
     1
  6
CONTINUOUS
 10
201.063049
 20
272.131775
 40
2.400000
  0
CIRCLE
  8
LC-003-002-----0
 62
     1
  6
CONTINUOUS
 10
219.063049
 20
254.131790
 40
4.000000
  0
CIRCLE
  8
LC-003-002-----0
 62
     1
  6
CONTINUOUS
 10
219.063049
 20
254.131790
 40
2.400000
  0
CIRCLE
  8
LC-003-002-----0
 62
     1
  6
CONTINUOUS
 10
183.063049
 20
254.131790
 40
4.000000
  0
CIRCLE
  8
LC-003-002-----0
 62
     1
  6
CONTINUOUS
 10
183.063049
 20
254.131790
 40
2.400000
  0
CIRCLE
  8
LC-003-002-----0
 62
     1
  6
CONTINUOUS
 10
201.063049
 20
236.131790
 40
4.000000
  0
CIRCLE
  8
LC-003-002-----0
 62
     1
  6
CONTINUOUS
 10
201.063049
 20
236.131790
 40
2.400000
  0
LINE
  8
LC-004-006-----0
 62
     2
  6
DASHDOT
 10
83.807594
 20
272.131775
 11
71.885147
 21
272.131775
  0
LINE
  8
LC-006-012-----0
 62
     2
  6
DASHED
 10
80.894989
 20
274.531799
 11
79.394989
 21
274.531799
  0
LINE
  8
LC-006-012-----0
 62
     2
  6
DASHED
 10
79.394989
 20
276.131775
 11
74.894989
 21
276.131775
  0
LINE
  8
LC-006-012-----0
 62
     2
  6
DASHED
 10
79.394989
 20
276.131775
 11
79.394989
 21
268.131775
  0
LINE
  8
LC-006-012-----0
 62
     2
  6
DASHED
 10
79.394989
 20
268.131775
 11
74.894989
 21
268.131775
  0
LINE
  8
LC-006-012-----0
 62
     2
  6
DASHED
 10
80.894989
 20
269.731781
 11
79.394989
 21
269.731781
  0
LINE
  8
LC-004-006-----0
 62
     2
  6
DASHDOT
 10
83.807594
 20
236.131790
 11
71.885147
 21
236.131790
  0
LINE
  8
LC-006-012-----0
 62
     2
  6
DASHED
 10
80.894989
 20
233.731781
 11
79.394989
 21
233.731781
  0
LINE
  8
LC-006-012-----0
 62
     2
  6
DASHED
 10
79.394989
 20
232.131790
 11
74.894989
 21
232.131790
  0
LINE
  8
LC-006-012-----0
 62
     2
  6
DASHED
 10
79.394989
 20
232.131790
 11
79.394989
 21
240.131790
  0
LINE
  8
LC-006-012-----0
 62
     2
  6
DASHED
 10
79.394989
 20
240.131790
 11
74.894989
 21
240.131790
  0
LINE
  8
LC-006-012-----0
 62
     2
  6
DASHED
 10
80.894989
 20
238.531784
 11
79.394989
 21
238.531784
  0
LINE
  8
LC-006-012-----0
 62
     2
  6
DASHED
 10
80.894989
 20
256.531799
 11
79.394989
 21
256.531799
  0
LINE
  8
LC-006-012-----0
 62
     2
  6
DASHED
 10
79.394989
 20
258.131775
 11
74.894989
 21
258.131775
  0
LINE
  8
LC-006-012-----0
 62
     2
  6
DASHED
 10
79.394989
 20
258.131775
 11
79.394989
 21
250.131805
  0
LINE
  8
LC-006-012-----0
 62
     2
  6
DASHED
 10
79.394989
 20
250.131790
 11
74.894989
 21
250.131790
  0
LINE
  8
LC-006-012-----0
 62
     2
  6
DASHED
 10
80.894989
 20
251.731781
 11
79.394989
 21
251.731781
  0
LINE
  8
LC-003-002-----0
 62
     1
  6
CONTINUOUS
 10
75.394989
 20
231.131790
 11
74.894989
 21
231.631790
  0
LINE
  8
LC-003-002-----0
 62
     1
  6
CONTINUOUS
 10
75.394989
 20
277.131775
 11
74.894989
 21
276.631775
  0
LINE
  8
LC-003-002-----0
 62
     1
  6
CONTINUOUS
 10
75.394989
 20
231.131790
 11
75.394989
 21
277.131775
  0
LINE
  8
LC-003-002-----0
 62
     1
  6
CONTINUOUS
 10
80.894989
 20
276.631775
 11
80.394989
 21
277.131775
  0
LINE
  8
LC-003-002-----0
 62
     1
  6
CONTINUOUS
 10
80.894989
 20
231.631790
 11
80.394989
 21
231.131790
  0
LINE
  8
LC-003-002-----0
 62
     1
  6
CONTINUOUS
 10
80.394989
 20
277.131775
 11
80.394989
 21
231.131805
  0
ARC
  8
LC-003-002-----0
 62
     1
  6
CONTINUOUS
 10
110.394989
 20
266.631775
 40
0.500000
 50
0.000000
 51
90.000003
  0
ARC
  8
LC-003-002-----0
 62
     1
  6
CONTINUOUS
 10
110.394989
 20
241.631790
 40
0.500000
 50
269.999997
 51
0.000000
  0
LINE
  8
LC-003-002-----0
 62
     1
  6
CONTINUOUS
 10
81.394989
 20
267.131775
 11
81.394989
 21
241.131805
  0
LINE
  8
LC-003-002-----0
 62
     1
  6
CONTINUOUS
 10
80.894989
 20
266.631775
 11
81.394989
 21
266.631775
  0
LINE
  8
LC-003-002-----0
 62
     1
  6
CONTINUOUS
 10
80.894989
 20
241.631790
 11
81.394989
 21
241.631790
  0
CIRCLE
  8
LC-003-002-----0
 62
     1
  6
CONTINUOUS
 10
201.063049
 20
254.131790
 40
22.500000
  0
ENDSEC
  0
EOF
