  0
SECTION
  2
HEADER
  9
$LIMMIN
 10
597.207703
 20
463.596222
  9
$LIMMAX
 10
817.530518
 20
536.283813
  9
$EXTMIN
 10
597.207703
 20
463.596222
  9
$EXTMAX
 10
817.530518
 20
536.283813
  0
ENDSEC
  0
SECTION
  2
TABLES
  0
TABLE
  2
LTYPE
 70
     3
  0
LTYPE
  2
CONTINUOUS
 70
    64
  3
Ausgezogene Linie
 72
    65
 73
     0
 40
0.0
  0
LTYPE
  2
DASHED
 70
    64
  3
__ __ __ __ __ __ __ __ __ __ __ __ __ __ __
 72
    65
 73
     2
 40
0.75
 49
0.5
 49
-0.25
  0
LTYPE
  2
DASHDOT
 70
    64
  3
__ . __ . __ . __ . __ . __ . __ . __ . __ . __
 72
    65
 73
     4
 40
1.0
 49
0.5
 49
-0.25
 49
0.0
 49
-0.25
  0
ENDTAB
  0
TABLE
  2
LAYER
 70
     4
  0
LAYER
  2
LC-003-002-----0
 70
    64
 62
     7
  6
CONTINUOUS
  0
LAYER
  2
LC-004-006-----0
 70
    64
 62
     7
  6
CONTINUOUS
  0
LAYER
  2
LC-006-012-----0
 70
    64
 62
     7
  6
CONTINUOUS
  0
LAYER
  2
LC-005-002-RND-0
 70
    64
 62
     7
  6
CONTINUOUS
  0
ENDTAB
  0
TABLE
  2
STYLE
 70
     1
  0
STYLE
  2
TXT8
 70
    64
 40
0.0
 41
1.0
 50
0.0
 71
     0
 42
3.500000
  3
TXT8
  4

  0
ENDTAB
  0
ENDSEC
  0
SECTION
  2
BLOCKS
  0
ENDSEC
  0
SECTION
  2
ENTITIES
  0
LINE
  8
LC-004-006-----0
 62
     2
  6
DASHDOT
 10
597.207703
 20
500.496704
 11
710.440002
 21
500.496704
  0
LINE
  8
LC-003-002-----0
 62
     1
  6
CONTINUOUS
 10
601.224915
 20
512.996704
 11
622.634216
 21
512.996704
  0
LINE
  8
LC-003-002-----0
 62
     1
  6
CONTINUOUS
 10
601.289978
 20
487.996704
 11
622.634216
 21
487.996704
  0
LINE
  8
LC-003-002-----0
 62
     1
  6
CONTINUOUS
 10
622.634216
 20
469.996704
 11
622.634216
 21
530.996704
  0
LINE
  8
LC-003-002-----0
 62
     1
  6
CONTINUOUS
 10
630.634216
 20
469.996704
 11
630.634216
 21
530.996704
  0
LINE
  8
LC-003-002-----0
 62
     1
  6
CONTINUOUS
 10
680.634216
 20
519.496704
 11
680.634216
 21
481.496704
  0
LINE
  8
LC-003-002-----0
 62
     1
  6
CONTINUOUS
 10
630.134216
 20
531.496704
 11
623.134216
 21
531.496704
  0
LINE
  8
LC-003-002-----0
 62
     1
  6
CONTINUOUS
 10
623.134216
 20
469.496704
 11
630.134216
 21
469.496704
  0
LINE
  8
LC-003-002-----0
 62
     1
  6
CONTINUOUS
 10
631.384216
 20
520.496704
 11
679.634216
 21
520.496704
  0
LINE
  8
LC-003-002-----0
 62
     1
  6
CONTINUOUS
 10
631.384216
 20
480.496704
 11
679.634216
 21
480.496704
  0
LINE
  8
LC-005-002-RND-0
 62
     2
  6
CONTINUOUS
 10
601.289978
 20
487.996704
 11
601.900696
 21
493.091034
  0
LINE
  8
LC-005-002-RND-0
 62
     2
  6
CONTINUOUS
 10
601.900696
 20
493.091034
 11
601.030762
 21
504.388214
  0
LINE
  8
LC-005-002-RND-0
 62
     2
  6
CONTINUOUS
 10
601.030762
 20
504.388214
 11
601.224915
 21
512.996704
  0
LINE
  8
LC-005-002-RND-0
 62
     2
  6
CONTINUOUS
 10
705.688293
 20
487.996704
 11
705.239624
 21
493.091034
  0
LINE
  8
LC-005-002-RND-0
 62
     2
  6
CONTINUOUS
 10
705.239624
 20
493.091034
 11
706.348511
 21
505.856293
  0
LINE
  8
LC-005-002-RND-0
 62
     2
  6
CONTINUOUS
 10
706.348511
 20
505.856293
 11
705.860229
 21
512.996704
  0
LINE
  8
LC-006-012-----0
 62
     2
  6
DASHED
 10
622.634216
 20
512.996704
 11
680.634216
 21
512.996704
  0
LINE
  8
LC-003-002-----0
 62
     1
  6
CONTINUOUS
 10
680.634216
 20
512.996704
 11
705.860229
 21
512.996704
  0
LINE
  8
LC-006-012-----0
 62
     2
  6
DASHED
 10
622.634216
 20
487.996704
 11
680.634216
 21
487.996704
  0
LINE
  8
LC-003-002-----0
 62
     1
  6
CONTINUOUS
 10
680.634216
 20
487.996704
 11
705.688293
 21
487.996704
  0
LINE
  8
LC-004-006-----0
 62
     2
  6
DASHDOT
 10
744.338196
 20
500.496704
 11
817.530518
 21
500.496704
  0
LINE
  8
LC-004-006-----0
 62
     2
  6
DASHDOT
 10
781.530701
 20
536.283813
 11
781.530701
 21
463.596222
  0
CIRCLE
  8
LC-003-002-----0
 62
     1
  6
CONTINUOUS
 10
781.530701
 20
500.496704
 40
12.500000
  0
CIRCLE
  8
LC-006-012-----0
 62
     2
  6
DASHED
 10
781.530701
 20
500.496704
 40
20.000000
  0
CIRCLE
  8
LC-003-002-----0
 62
     1
  6
CONTINUOUS
 10
781.530701
 20
500.496704
 40
31.000000
  0
CIRCLE
  8
LC-004-006-----0
 62
     2
  6
DASHDOT
 10
781.530701
 20
500.496704
 40
25.500000
  0
CIRCLE
  8
LC-003-002-----0
 62
     1
  6
CONTINUOUS
 10
781.530701
 20
525.996704
 40
5.000000
  0
CIRCLE
  8
LC-003-002-----0
 62
     1
  6
CONTINUOUS
 10
781.530701
 20
525.996704
 40
2.900000
  0
CIRCLE
  8
LC-003-002-----0
 62
     1
  6
CONTINUOUS
 10
756.030701
 20
500.496704
 40
5.000000
  0
CIRCLE
  8
LC-003-002-----0
 62
     1
  6
CONTINUOUS
 10
756.030701
 20
500.496704
 40
2.900000
  0
CIRCLE
  8
LC-003-002-----0
 62
     1
  6
CONTINUOUS
 10
781.530701
 20
474.996704
 40
5.000000
  0
CIRCLE
  8
LC-003-002-----0
 62
     1
  6
CONTINUOUS
 10
781.530701
 20
474.996704
 40
2.900000
  0
CIRCLE
  8
LC-003-002-----0
 62
     1
  6
CONTINUOUS
 10
807.030701
 20
500.496704
 40
2.900000
  0
CIRCLE
  8
LC-003-002-----0
 62
     1
  6
CONTINUOUS
 10
807.030701
 20
500.496704
 40
5.000000
  0
LINE
  8
LC-004-006-----0
 62
     2
  6
DASHDOT
 10
633.527832
 20
525.996704
 11
619.297119
 21
525.996704
  0
LINE
  8
LC-006-012-----0
 62
     2
  6
DASHED
 10
628.334229
 20
530.996704
 11
622.634216
 21
530.996704
  0
LINE
  8
LC-006-012-----0
 62
     2
  6
DASHED
 10
630.634216
 20
528.896729
 11
628.334229
 21
528.896729
  0
LINE
  8
LC-006-012-----0
 62
     2
  6
DASHED
 10
628.334229
 20
530.996704
 11
628.334229
 21
520.996704
  0
LINE
  8
LC-006-012-----0
 62
     2
  6
DASHED
 10
628.334229
 20
520.996704
 11
622.634216
 21
520.996704
  0
LINE
  8
LC-006-012-----0
 62
     2
  6
DASHED
 10
630.634216
 20
523.096680
 11
628.334229
 21
523.096680
  0
LINE
  8
LC-006-012-----0
 62
     2
  6
DASHED
 10
630.634216
 20
503.396698
 11
628.334229
 21
503.396698
  0
LINE
  8
LC-006-012-----0
 62
     2
  6
DASHED
 10
628.334229
 20
495.496704
 11
622.634216
 21
495.496704
  0
LINE
  8
LC-006-012-----0
 62
     2
  6
DASHED
 10
630.634216
 20
497.596710
 11
628.334229
 21
497.596710
  0
LINE
  8
LC-006-012-----0
 62
     2
  6
DASHED
 10
628.334229
 20
505.496704
 11
628.334229
 21
495.496704
  0
LINE
  8
LC-006-012-----0
 62
     2
  6
DASHED
 10
628.334229
 20
505.496704
 11
622.634216
 21
505.496704
  0
LINE
  8
LC-004-006-----0
 62
     2
  6
DASHDOT
 10
633.527832
 20
474.996704
 11
619.297119
 21
474.996704
  0
LINE
  8
LC-006-012-----0
 62
     2
  6
DASHED
 10
628.334229
 20
469.996704
 11
622.634216
 21
469.996704
  0
LINE
  8
LC-006-012-----0
 62
     2
  6
DASHED
 10
630.634216
 20
472.096710
 11
628.334229
 21
472.096710
  0
LINE
  8
LC-006-012-----0
 62
     2
  6
DASHED
 10
628.334229
 20
469.996704
 11
628.334229
 21
479.996704
  0
LINE
  8
LC-006-012-----0
 62
     2
  6
DASHED
 10
628.334229
 20
479.996704
 11
622.634216
 21
479.996704
  0
LINE
  8
LC-006-012-----0
 62
     2
  6
DASHED
 10
630.634216
 20
477.896698
 11
628.334229
 21
477.896698
  0
LINE
  8
LC-003-002-----0
 62
     1
  6
CONTINUOUS
 10
623.134216
 20
469.496704
 11
622.634216
 21
469.996704
  0
LINE
  8
LC-003-002-----0
 62
     1
  6
CONTINUOUS
 10
622.634216
 20
530.996704
 11
623.134216
 21
531.496704
  0
LINE
  8
LC-003-002-----0
 62
     1
  6
CONTINUOUS
 10
623.134216
 20
469.496704
 11
623.134216
 21
531.496704
  0
LINE
  8
LC-003-002-----0
 62
     1
  6
CONTINUOUS
 10
630.634216
 20
530.996704
 11
630.134216
 21
531.496704
  0
LINE
  8
LC-003-002-----0
 62
     1
  6
CONTINUOUS
 10
630.134216
 20
469.496704
 11
630.634216
 21
469.996704
  0
LINE
  8
LC-003-002-----0
 62
     1
  6
CONTINUOUS
 10
630.134216
 20
531.496704
 11
630.134216
 21
469.496704
  0
ARC
  8
LC-003-002-----0
 62
     1
  6
CONTINUOUS
 10
679.634216
 20
519.496704
 40
1.000000
 50
0.000000
 51
90.000003
  0
ARC
  8
LC-003-002-----0
 62
     1
  6
CONTINUOUS
 10
679.634216
 20
481.496704
 40
1.000000
 50
269.999997
 51
0.000000
  0
LINE
  8
LC-003-002-----0
 62
     1
  6
CONTINUOUS
 10
631.384216
 20
480.496704
 11
631.384216
 21
520.496704
  0
LINE
  8
LC-003-002-----0
 62
     1
  6
CONTINUOUS
 10
630.634216
 20
481.246704
 11
631.384216
 21
481.246704
  0
LINE
  8
LC-003-002-----0
 62
     1
  6
CONTINUOUS
 10
630.634216
 20
519.746704
 11
631.384216
 21
519.746704
  0
CIRCLE
  8
LC-003-002-----0
 62
     1
  6
CONTINUOUS
 10
781.530701
 20
500.496704
 40
30.500000
  0
ENDSEC
  0
EOF
