  0
SECTION
  2
HEADER
  9
$LIMMIN
 10
139.721420
 20
489.059387
  9
$LIMMAX
 10
267.885132
 20
524.808594
  9
$EXTMIN
 10
139.721420
 20
489.059387
  9
$EXTMAX
 10
267.885132
 20
524.808594
  0
ENDSEC
  0
SECTION
  2
TABLES
  0
TABLE
  2
LTYPE
 70
     3
  0
LTYPE
  2
CONTINUOUS
 70
    64
  3
Ausgezogene Linie
 72
    65
 73
     0
 40
0.0
  0
LTYPE
  2
DASHED
 70
    64
  3
__ __ __ __ __ __ __ __ __ __ __ __ __ __ __
 72
    65
 73
     2
 40
0.75
 49
0.5
 49
-0.25
  0
LTYPE
  2
DASHDOT
 70
    64
  3
__ . __ . __ . __ . __ . __ . __ . __ . __ . __
 72
    65
 73
     4
 40
1.0
 49
0.5
 49
-0.25
 49
0.0
 49
-0.25
  0
ENDTAB
  0
TABLE
  2
LAYER
 70
     4
  0
LAYER
  2
LC-003-002-----0
 70
    64
 62
     7
  6
CONTINUOUS
  0
LAYER
  2
LC-004-006-----0
 70
    64
 62
     7
  6
CONTINUOUS
  0
LAYER
  2
LC-006-012-----0
 70
    64
 62
     7
  6
CONTINUOUS
  0
LAYER
  2
LC-005-002-RND-0
 70
    64
 62
     7
  6
CONTINUOUS
  0
ENDTAB
  0
TABLE
  2
STYLE
 70
     1
  0
STYLE
  2
TXT8
 70
    64
 40
0.0
 41
1.0
 50
0.0
 71
     0
 42
3.500000
  3
TXT8
  4

  0
ENDTAB
  0
ENDSEC
  0
SECTION
  2
BLOCKS
  0
ENDSEC
  0
SECTION
  2
ENTITIES
  0
LINE
  8
LC-004-006-----0
 62
     2
  6
DASHDOT
 10
139.721420
 20
506.892487
 11
210.409760
 21
506.892487
  0
LINE
  8
LC-003-002-----0
 62
     1
  6
CONTINUOUS
 10
152.030396
 20
514.392456
 11
156.030396
 21
514.392456
  0
LINE
  8
LC-003-002-----0
 62
     1
  6
CONTINUOUS
 10
152.030396
 20
499.392487
 11
156.030396
 21
499.392487
  0
LINE
  8
LC-003-002-----0
 62
     1
  6
CONTINUOUS
 10
161.530396
 20
522.892456
 11
156.530396
 21
522.892456
  0
LINE
  8
LC-003-002-----0
 62
     1
  6
CONTINUOUS
 10
161.530396
 20
490.892487
 11
156.530396
 21
490.892487
  0
LINE
  8
LC-003-002-----0
 62
     1
  6
CONTINUOUS
 10
156.530396
 20
490.892487
 11
156.530396
 21
522.892456
  0
LINE
  8
LC-003-002-----0
 62
     1
  6
CONTINUOUS
 10
161.530396
 20
490.892487
 11
161.530396
 21
522.892456
  0
LINE
  8
LC-003-002-----0
 62
     1
  6
CONTINUOUS
 10
196.530396
 20
499.892487
 11
196.530396
 21
513.892456
  0
LINE
  8
LC-003-002-----0
 62
     1
  6
CONTINUOUS
 10
151.530396
 20
499.892487
 11
151.530396
 21
513.892456
  0
LINE
  8
LC-003-002-----0
 62
     1
  6
CONTINUOUS
 10
141.516678
 20
510.892487
 11
151.530396
 21
510.892487
  0
LINE
  8
LC-003-002-----0
 62
     1
  6
CONTINUOUS
 10
141.426804
 20
502.892487
 11
151.530396
 21
502.892487
  0
LINE
  8
LC-005-002-RND-0
 62
     2
  6
CONTINUOUS
 10
141.426804
 20
502.892487
 11
140.957184
 21
504.897400
  0
LINE
  8
LC-005-002-RND-0
 62
     2
  6
CONTINUOUS
 10
140.957184
 20
504.897400
 11
142.090591
 21
508.973907
  0
LINE
  8
LC-005-002-RND-0
 62
     2
  6
CONTINUOUS
 10
142.090591
 20
508.973907
 11
141.516678
 21
510.892487
  0
LINE
  8
LC-005-002-RND-0
 62
     2
  6
CONTINUOUS
 10
208.290237
 20
502.892487
 11
208.515884
 21
504.476288
  0
LINE
  8
LC-005-002-RND-0
 62
     2
  6
CONTINUOUS
 10
208.515884
 20
504.476288
 11
207.945526
 21
508.690247
  0
LINE
  8
LC-005-002-RND-0
 62
     2
  6
CONTINUOUS
 10
207.945526
 20
508.690247
 11
208.164581
 21
510.892487
  0
LINE
  8
LC-006-012-----0
 62
     2
  6
DASHED
 10
151.530396
 20
510.892487
 11
196.530396
 21
510.892487
  0
LINE
  8
LC-003-002-----0
 62
     1
  6
CONTINUOUS
 10
196.530396
 20
510.892487
 11
208.164581
 21
510.892487
  0
LINE
  8
LC-006-012-----0
 62
     2
  6
DASHED
 10
151.530396
 20
502.892487
 11
196.530396
 21
502.892487
  0
LINE
  8
LC-003-002-----0
 62
     1
  6
CONTINUOUS
 10
196.530396
 20
502.892487
 11
208.290237
 21
502.892487
  0
LINE
  8
LC-003-002-----0
 62
     1
  6
CONTINUOUS
 10
162.030396
 20
514.392456
 11
196.030396
 21
514.392456
  0
LINE
  8
LC-003-002-----0
 62
     1
  6
CONTINUOUS
 10
162.030396
 20
499.392487
 11
196.030396
 21
499.392487
  0
LINE
  8
LC-004-006-----0
 62
     2
  6
DASHDOT
 10
243.109299
 20
506.892487
 11
267.885132
 21
506.892487
  0
LINE
  8
LC-004-006-----0
 62
     2
  6
DASHDOT
 10
255.560226
 20
524.808594
 11
255.560226
 21
489.059387
  0
CIRCLE
  8
LC-003-002-----0
 62
     1
  6
CONTINUOUS
 10
255.560226
 20
506.892487
 40
4.000000
  0
CIRCLE
  8
LC-003-002-----0
 62
     1
  6
CONTINUOUS
 10
255.560226
 20
506.892487
 40
7.500000
  0
ARC
  8
LC-003-002-----0
 62
     1
  6
CONTINUOUS
 10
255.560226
 20
506.892487
 40
16.000000
 50
228.985497
 51
311.014501
  0
LINE
  8
LC-003-002-----0
 62
     1
  6
CONTINUOUS
 10
266.060211
 20
518.965149
 11
266.060211
 21
494.819824
  0
LINE
  8
LC-003-002-----0
 62
     1
  6
CONTINUOUS
 10
245.060226
 20
518.965149
 11
245.060226
 21
494.819824
  0
ARC
  8
LC-003-002-----0
 62
     1
  6
CONTINUOUS
 10
255.560226
 20
506.892487
 40
16.000000
 50
48.985499
 51
131.014503
  0
LINE
  8
LC-004-006-----0
 62
     2
  6
DASHDOT
 10
251.266541
 20
518.892456
 11
259.883026
 21
518.892456
  0
CIRCLE
  8
LC-006-012-----0
 62
     2
  6
DASHED
 10
255.560226
 20
518.892456
 40
3.000000
  0
CIRCLE
  8
LC-003-002-----0
 62
     1
  6
CONTINUOUS
 10
255.560226
 20
518.892456
 40
1.800000
  0
LINE
  8
LC-004-006-----0
 62
     2
  6
DASHDOT
 10
251.266541
 20
494.892487
 11
259.883026
 21
494.892487
  0
CIRCLE
  8
LC-006-012-----0
 62
     2
  6
DASHED
 10
255.560226
 20
494.892487
 40
3.000000
  0
CIRCLE
  8
LC-003-002-----0
 62
     1
  6
CONTINUOUS
 10
255.560226
 20
494.892487
 40
1.800000
  0
LINE
  8
LC-004-006-----0
 62
     2
  6
DASHDOT
 10
154.821594
 20
518.892456
 11
163.260696
 21
518.892456
  0
LINE
  8
LC-006-012-----0
 62
     2
  6
DASHED
 10
158.030396
 20
521.892456
 11
161.530396
 21
521.892456
  0
LINE
  8
LC-006-012-----0
 62
     2
  6
DASHED
 10
156.530396
 20
520.692505
 11
158.030396
 21
520.692505
  0
LINE
  8
LC-006-012-----0
 62
     2
  6
DASHED
 10
158.030396
 20
515.892456
 11
158.030396
 21
521.892456
  0
LINE
  8
LC-006-012-----0
 62
     2
  6
DASHED
 10
158.030396
 20
515.892456
 11
161.530396
 21
515.892456
  0
LINE
  8
LC-006-012-----0
 62
     2
  6
DASHED
 10
156.530396
 20
517.092468
 11
158.030396
 21
517.092468
  0
LINE
  8
LC-006-012-----0
 62
     2
  6
DASHED
 10
158.030396
 20
491.892487
 11
161.530396
 21
491.892487
  0
LINE
  8
LC-006-012-----0
 62
     2
  6
DASHED
 10
156.530396
 20
493.092468
 11
158.030396
 21
493.092468
  0
LINE
  8
LC-006-012-----0
 62
     2
  6
DASHED
 10
158.030396
 20
497.892487
 11
158.030396
 21
491.892487
  0
LINE
  8
LC-006-012-----0
 62
     2
  6
DASHED
 10
158.030396
 20
497.892487
 11
161.530396
 21
497.892487
  0
LINE
  8
LC-006-012-----0
 62
     2
  6
DASHED
 10
156.530396
 20
496.692474
 11
158.030396
 21
496.692474
  0
LINE
  8
LC-004-006-----0
 62
     2
  6
DASHDOT
 10
154.821594
 20
494.892487
 11
163.260696
 21
494.892487
  0
ARC
  8
LC-003-002-----0
 62
     1
  6
CONTINUOUS
 10
152.030396
 20
513.892456
 40
0.500000
 50
90.000003
 51
180.000009
  0
ARC
  8
LC-003-002-----0
 62
     1
  6
CONTINUOUS
 10
152.030396
 20
499.892487
 40
0.500000
 50
180.000009
 51
269.999997
  0
ARC
  8
LC-003-002-----0
 62
     1
  6
CONTINUOUS
 10
196.030396
 20
499.892487
 40
0.500000
 50
269.999997
 51
0.000000
  0
ARC
  8
LC-003-002-----0
 62
     1
  6
CONTINUOUS
 10
196.030396
 20
513.892456
 40
0.500000
 50
0.000000
 51
90.000003
  0
LINE
  8
LC-003-002-----0
 62
     1
  6
CONTINUOUS
 10
162.030396
 20
499.392487
 11
162.030396
 21
514.392456
  0
LINE
  8
LC-003-002-----0
 62
     1
  6
CONTINUOUS
 10
156.030396
 20
499.392487
 11
156.030396
 21
514.392456
  0
LINE
  8
LC-003-002-----0
 62
     1
  6
CONTINUOUS
 10
156.030396
 20
499.892487
 11
156.530396
 21
499.892487
  0
LINE
  8
LC-003-002-----0
 62
     1
  6
CONTINUOUS
 10
161.530396
 20
499.892487
 11
162.030396
 21
499.892487
  0
LINE
  8
LC-003-002-----0
 62
     1
  6
CONTINUOUS
 10
156.030396
 20
513.892456
 11
156.530396
 21
513.892456
  0
LINE
  8
LC-003-002-----0
 62
     1
  6
CONTINUOUS
 10
161.530396
 20
513.892456
 11
162.030396
 21
513.892456
  0
LINE
  8
LC-003-002-----0
 62
     1
  6
CONTINUOUS
 10
161.530396
 20
518.965149
 11
156.530396
 21
518.965149
  0
LINE
  8
LC-003-002-----0
 62
     1
  6
CONTINUOUS
 10
161.530396
 20
494.819794
 11
156.530396
 21
494.819794
  0
LINE
  8
LC-005-002-RND-0
 62
     2
  6
CONTINUOUS
 10
156.530396
 20
494.819794
 11
161.530396
 21
518.965149
  0
LINE
  8
LC-005-002-RND-0
 62
     2
  6
CONTINUOUS
 10
161.530396
 20
494.819794
 11
156.530396
 21
518.965149
  0
ENDSEC
  0
EOF
