  0
SECTION
  2
HEADER
  9
$LIMMIN
 10
136.911667
 20
353.876190
  9
$LIMMAX
 10
294.881012
 20
401.141235
  9
$EXTMIN
 10
136.911667
 20
353.876190
  9
$EXTMAX
 10
294.881012
 20
401.141235
  0
ENDSEC
  0
SECTION
  2
TABLES
  0
TABLE
  2
LTYPE
 70
     3
  0
LTYPE
  2
CONTINUOUS
 70
    64
  3
Ausgezogene Linie
 72
    65
 73
     0
 40
0.0
  0
LTYPE
  2
DASHED
 70
    64
  3
__ __ __ __ __ __ __ __ __ __ __ __ __ __ __
 72
    65
 73
     2
 40
0.75
 49
0.5
 49
-0.25
  0
LTYPE
  2
DASHDOT
 70
    64
  3
__ . __ . __ . __ . __ . __ . __ . __ . __ . __
 72
    65
 73
     4
 40
1.0
 49
0.5
 49
-0.25
 49
0.0
 49
-0.25
  0
ENDTAB
  0
TABLE
  2
LAYER
 70
     4
  0
LAYER
  2
LC-003-002-----0
 70
    64
 62
     7
  6
CONTINUOUS
  0
LAYER
  2
LC-004-006-----0
 70
    64
 62
     7
  6
CONTINUOUS
  0
LAYER
  2
LC-006-012-----0
 70
    64
 62
     7
  6
CONTINUOUS
  0
LAYER
  2
LC-005-002-RND-0
 70
    64
 62
     7
  6
CONTINUOUS
  0
ENDTAB
  0
TABLE
  2
STYLE
 70
     1
  0
STYLE
  2
TXT8
 70
    64
 40
0.0
 41
1.0
 50
0.0
 71
     0
 42
3.500000
  3
TXT8
  4

  0
ENDTAB
  0
ENDSEC
  0
SECTION
  2
BLOCKS
  0
ENDSEC
  0
SECTION
  2
ENTITIES
  0
LINE
  8
LC-004-006-----0
 62
     2
  6
DASHDOT
 10
136.911667
 20
377.746887
 11
224.388977
 21
377.746887
  0
LINE
  8
LC-003-002-----0
 62
     1
  6
CONTINUOUS
 10
151.030396
 20
388.246887
 11
156.030396
 21
388.246887
  0
LINE
  8
LC-003-002-----0
 62
     1
  6
CONTINUOUS
 10
151.030396
 20
367.246887
 11
156.030396
 21
367.246887
  0
LINE
  8
LC-003-002-----0
 62
     1
  6
CONTINUOUS
 10
162.530396
 20
398.746887
 11
156.530396
 21
398.746887
  0
LINE
  8
LC-003-002-----0
 62
     1
  6
CONTINUOUS
 10
162.530396
 20
356.746887
 11
156.530396
 21
356.746887
  0
LINE
  8
LC-003-002-----0
 62
     1
  6
CONTINUOUS
 10
156.530396
 20
398.746887
 11
156.530396
 21
356.746887
  0
LINE
  8
LC-003-002-----0
 62
     1
  6
CONTINUOUS
 10
162.530396
 20
398.746887
 11
162.530396
 21
356.746887
  0
LINE
  8
LC-003-002-----0
 62
     1
  6
CONTINUOUS
 10
207.530396
 20
387.746887
 11
207.530396
 21
367.746887
  0
LINE
  8
LC-003-002-----0
 62
     1
  6
CONTINUOUS
 10
150.530396
 20
387.746887
 11
150.530396
 21
367.746887
  0
LINE
  8
LC-003-002-----0
 62
     1
  6
CONTINUOUS
 10
163.030396
 20
388.246887
 11
207.030396
 21
388.246887
  0
LINE
  8
LC-003-002-----0
 62
     1
  6
CONTINUOUS
 10
163.030396
 20
367.246887
 11
207.030396
 21
367.246887
  0
LINE
  8
LC-003-002-----0
 62
     1
  6
CONTINUOUS
 10
139.575638
 20
383.746887
 11
150.530396
 21
383.746887
  0
LINE
  8
LC-003-002-----0
 62
     1
  6
CONTINUOUS
 10
139.309723
 20
371.746887
 11
150.530396
 21
371.746887
  0
LINE
  8
LC-005-002-RND-0
 62
     2
  6
CONTINUOUS
 10
139.309723
 20
371.746887
 11
139.458511
 21
373.469299
  0
LINE
  8
LC-005-002-RND-0
 62
     2
  6
CONTINUOUS
 10
139.458511
 20
373.469299
 11
138.911255
 21
380.411041
  0
LINE
  8
LC-005-002-RND-0
 62
     2
  6
CONTINUOUS
 10
138.911255
 20
380.411041
 11
139.575638
 21
383.746887
  0
LINE
  8
LC-005-002-RND-0
 62
     2
  6
CONTINUOUS
 10
221.858032
 20
371.746887
 11
221.659714
 21
374.751587
  0
LINE
  8
LC-005-002-RND-0
 62
     2
  6
CONTINUOUS
 10
221.659714
 20
374.751587
 11
222.382370
 21
380.613068
  0
LINE
  8
LC-005-002-RND-0
 62
     2
  6
CONTINUOUS
 10
222.382370
 20
380.613068
 11
222.181961
 21
383.746887
  0
LINE
  8
LC-006-012-----0
 62
     2
  6
DASHED
 10
150.530396
 20
383.746887
 11
207.530396
 21
383.746887
  0
LINE
  8
LC-003-002-----0
 62
     1
  6
CONTINUOUS
 10
207.530396
 20
383.746887
 11
222.181961
 21
383.746887
  0
LINE
  8
LC-006-012-----0
 62
     2
  6
DASHED
 10
150.530396
 20
371.746887
 11
207.530396
 21
371.746887
  0
LINE
  8
LC-003-002-----0
 62
     1
  6
CONTINUOUS
 10
207.530396
 20
371.746887
 11
221.858032
 21
371.746887
  0
LINE
  8
LC-004-006-----0
 62
     2
  6
DASHDOT
 10
261.037323
 20
377.746887
 11
294.881012
 21
377.746887
  0
LINE
  8
LC-003-002-----0
 62
     1
  6
CONTINUOUS
 10
278.044189
 20
401.141235
 11
278.044189
 21
353.876190
  0
CIRCLE
  8
LC-003-002-----0
 62
     1
  6
CONTINUOUS
 10
278.044189
 20
377.746887
 40
6.000000
  0
CIRCLE
  8
LC-003-002-----0
 62
     1
  6
CONTINUOUS
 10
278.044189
 20
377.746887
 40
10.500000
  0
ARC
  8
LC-003-002-----0
 62
     1
  6
CONTINUOUS
 10
278.044189
 20
377.746887
 40
21.000000
 50
229.994794
 51
310.005201
  0
LINE
  8
LC-003-002-----0
 62
     1
  6
CONTINUOUS
 10
291.544189
 20
393.832581
 11
291.544189
 21
361.661163
  0
LINE
  8
LC-003-002-----0
 62
     1
  6
CONTINUOUS
 10
264.544189
 20
393.832581
 11
264.544189
 21
361.661163
  0
ARC
  8
LC-003-002-----0
 62
     1
  6
CONTINUOUS
 10
278.044189
 20
377.746887
 40
21.000000
 50
49.994799
 51
130.005206
  0
LINE
  8
LC-004-006-----0
 62
     2
  6
DASHDOT
 10
272.586639
 20
393.746887
 11
283.706818
 21
393.746887
  0
CIRCLE
  8
LC-006-012-----0
 62
     2
  6
DASHED
 10
278.044189
 20
393.746887
 40
4.000000
  0
CIRCLE
  8
LC-003-002-----0
 62
     1
  6
CONTINUOUS
 10
278.044189
 20
393.746887
 40
2.400000
  0
LINE
  8
LC-004-006-----0
 62
     2
  6
DASHDOT
 10
272.586639
 20
361.746887
 11
283.706818
 21
361.746887
  0
CIRCLE
  8
LC-006-012-----0
 62
     2
  6
DASHED
 10
278.044189
 20
361.746887
 40
4.000000
  0
CIRCLE
  8
LC-003-002-----0
 62
     1
  6
CONTINUOUS
 10
278.044189
 20
361.746887
 40
2.400000
  0
LINE
  8
LC-004-006-----0
 62
     2
  6
DASHDOT
 10
154.383148
 20
393.746887
 11
164.140610
 21
393.746887
  0
LINE
  8
LC-006-012-----0
 62
     2
  6
DASHED
 10
158.030396
 20
397.746887
 11
162.530396
 21
397.746887
  0
LINE
  8
LC-006-012-----0
 62
     2
  6
DASHED
 10
156.530396
 20
396.146881
 11
158.030396
 21
396.146881
  0
LINE
  8
LC-006-012-----0
 62
     2
  6
DASHED
 10
158.030396
 20
397.746887
 11
158.030396
 21
389.746887
  0
LINE
  8
LC-006-012-----0
 62
     2
  6
DASHED
 10
158.030396
 20
389.746887
 11
162.530396
 21
389.746887
  0
LINE
  8
LC-006-012-----0
 62
     2
  6
DASHED
 10
156.530396
 20
391.346893
 11
158.030396
 21
391.346893
  0
LINE
  8
LC-004-006-----0
 62
     2
  6
DASHDOT
 10
154.383148
 20
361.746887
 11
164.140610
 21
361.746887
  0
LINE
  8
LC-006-012-----0
 62
     2
  6
DASHED
 10
158.030396
 20
357.746887
 11
162.530396
 21
357.746887
  0
LINE
  8
LC-006-012-----0
 62
     2
  6
DASHED
 10
156.530396
 20
359.346893
 11
158.030396
 21
359.346893
  0
LINE
  8
LC-006-012-----0
 62
     2
  6
DASHED
 10
158.030396
 20
357.746887
 11
158.030396
 21
365.746887
  0
LINE
  8
LC-006-012-----0
 62
     2
  6
DASHED
 10
158.030396
 20
365.746887
 11
162.530396
 21
365.746887
  0
LINE
  8
LC-006-012-----0
 62
     2
  6
DASHED
 10
156.530396
 20
364.146881
 11
158.030396
 21
364.146881
  0
ARC
  8
LC-003-002-----0
 62
     1
  6
CONTINUOUS
 10
151.030396
 20
387.746887
 40
0.500000
 50
90.000003
 51
180.000009
  0
ARC
  8
LC-003-002-----0
 62
     1
  6
CONTINUOUS
 10
151.030396
 20
367.746887
 40
0.500000
 50
180.000009
 51
269.999997
  0
ARC
  8
LC-003-002-----0
 62
     1
  6
CONTINUOUS
 10
207.030396
 20
367.746887
 40
0.500000
 50
269.999997
 51
0.000000
  0
ARC
  8
LC-003-002-----0
 62
     1
  6
CONTINUOUS
 10
207.030396
 20
387.746887
 40
0.500000
 50
0.000000
 51
90.000003
  0
LINE
  8
LC-003-002-----0
 62
     1
  6
CONTINUOUS
 10
163.030396
 20
388.246887
 11
163.030396
 21
367.246887
  0
LINE
  8
LC-003-002-----0
 62
     1
  6
CONTINUOUS
 10
156.030396
 20
388.246887
 11
156.030396
 21
367.246887
  0
LINE
  8
LC-003-002-----0
 62
     1
  6
CONTINUOUS
 10
156.030396
 20
367.746887
 11
156.530396
 21
367.746887
  0
LINE
  8
LC-003-002-----0
 62
     1
  6
CONTINUOUS
 10
156.030396
 20
387.746887
 11
156.530396
 21
387.746887
  0
LINE
  8
LC-003-002-----0
 62
     1
  6
CONTINUOUS
 10
162.530396
 20
387.746887
 11
163.030396
 21
387.746887
  0
LINE
  8
LC-003-002-----0
 62
     1
  6
CONTINUOUS
 10
162.530396
 20
367.746887
 11
163.030396
 21
367.746887
  0
LINE
  8
LC-003-002-----0
 62
     1
  6
CONTINUOUS
 10
162.530396
 20
393.832581
 11
156.530396
 21
393.832581
  0
LINE
  8
LC-003-002-----0
 62
     1
  6
CONTINUOUS
 10
162.530396
 20
361.661163
 11
156.530396
 21
361.661163
  0
LINE
  8
LC-005-002-RND-0
 62
     2
  6
CONTINUOUS
 10
156.530396
 20
361.661163
 11
162.530396
 21
393.832581
  0
LINE
  8
LC-005-002-RND-0
 62
     2
  6
CONTINUOUS
 10
162.530396
 20
361.661163
 11
156.530396
 21
393.832581
  0
ENDSEC
  0
EOF
