  0
SECTION
  2
HEADER
  9
$LIMMIN
 10
439.022858
 20
417.000153
  9
$LIMMAX
 10
704.001465
 20
488.333862
  9
$EXTMIN
 10
439.022858
 20
417.000153
  9
$EXTMAX
 10
704.001465
 20
488.333862
  0
ENDSEC
  0
SECTION
  2
TABLES
  0
TABLE
  2
LTYPE
 70
     3
  0
LTYPE
  2
CONTINUOUS
 70
    64
  3
Ausgezogene Linie
 72
    65
 73
     0
 40
0.0
  0
LTYPE
  2
DASHED
 70
    64
  3
__ __ __ __ __ __ __ __ __ __ __ __ __ __ __
 72
    65
 73
     2
 40
0.75
 49
0.5
 49
-0.25
  0
LTYPE
  2
DASHDOT
 70
    64
  3
__ . __ . __ . __ . __ . __ . __ . __ . __ . __
 72
    65
 73
     4
 40
1.0
 49
0.5
 49
-0.25
 49
0.0
 49
-0.25
  0
ENDTAB
  0
TABLE
  2
LAYER
 70
     4
  0
LAYER
  2
LC-003-002-----0
 70
    64
 62
     7
  6
CONTINUOUS
  0
LAYER
  2
LC-004-006-----0
 70
    64
 62
     7
  6
CONTINUOUS
  0
LAYER
  2
LC-006-012-----0
 70
    64
 62
     7
  6
CONTINUOUS
  0
LAYER
  2
LC-005-002-RND-0
 70
    64
 62
     7
  6
CONTINUOUS
  0
ENDTAB
  0
TABLE
  2
STYLE
 70
     1
  0
STYLE
  2
TXT8
 70
    64
 40
0.0
 41
1.0
 50
0.0
 71
     0
 42
3.500000
  3
TXT8
  4

  0
ENDTAB
  0
ENDSEC
  0
SECTION
  2
BLOCKS
  0
ENDSEC
  0
SECTION
  2
ENTITIES
  0
LINE
  8
LC-004-006-----0
 62
     2
  6
DASHDOT
 10
439.022858
 20
453.252411
 11
602.939636
 21
453.252411
  0
LINE
  8
LC-003-002-----0
 62
     1
  6
CONTINUOUS
 10
461.704590
 20
473.252411
 11
467.454590
 21
473.252411
  0
LINE
  8
LC-003-002-----0
 62
     1
  6
CONTINUOUS
 10
461.704590
 20
433.252411
 11
467.454590
 21
433.252411
  0
LINE
  8
LC-003-002-----0
 62
     1
  6
CONTINUOUS
 10
468.454590
 20
484.252411
 11
476.454590
 21
484.252411
  0
LINE
  8
LC-003-002-----0
 62
     1
  6
CONTINUOUS
 10
468.454590
 20
422.252411
 11
476.454590
 21
422.252411
  0
LINE
  8
LC-003-002-----0
 62
     1
  6
CONTINUOUS
 10
468.454590
 20
484.252411
 11
468.454590
 21
422.252411
  0
LINE
  8
LC-003-002-----0
 62
     1
  6
CONTINUOUS
 10
476.454590
 20
484.252411
 11
476.454590
 21
422.252411
  0
LINE
  8
LC-003-002-----0
 62
     1
  6
CONTINUOUS
 10
460.454590
 20
472.002411
 11
460.454590
 21
434.502411
  0
LINE
  8
LC-003-002-----0
 62
     1
  6
CONTINUOUS
 10
572.454590
 20
472.002411
 11
572.454590
 21
434.502411
  0
LINE
  8
LC-003-002-----0
 62
     1
  6
CONTINUOUS
 10
477.454590
 20
473.252411
 11
571.204590
 21
473.252411
  0
LINE
  8
LC-003-002-----0
 62
     1
  6
CONTINUOUS
 10
477.454590
 20
433.252411
 11
571.204590
 21
433.252411
  0
LINE
  8
LC-003-002-----0
 62
     1
  6
CONTINUOUS
 10
442.572083
 20
465.752411
 11
460.454590
 21
465.752411
  0
LINE
  8
LC-003-002-----0
 62
     1
  6
CONTINUOUS
 10
442.047913
 20
440.752411
 11
460.454590
 21
440.752411
  0
LINE
  8
LC-005-002-RND-0
 62
     2
  6
CONTINUOUS
 10
442.047913
 20
440.752411
 11
442.784210
 21
445.922424
  0
LINE
  8
LC-005-002-RND-0
 62
     2
  6
CONTINUOUS
 10
442.784210
 20
445.922424
 11
442.157318
 21
458.549438
  0
LINE
  8
LC-005-002-RND-0
 62
     2
  6
CONTINUOUS
 10
442.157318
 20
458.549438
 11
442.572083
 21
465.752411
  0
LINE
  8
LC-005-002-RND-0
 62
     2
  6
CONTINUOUS
 10
597.855103
 20
440.752411
 11
598.563416
 21
446.038147
  0
LINE
  8
LC-005-002-RND-0
 62
     2
  6
CONTINUOUS
 10
598.563416
 20
446.038147
 11
597.635132
 21
459.822266
  0
LINE
  8
LC-005-002-RND-0
 62
     2
  6
CONTINUOUS
 10
597.635132
 20
459.822266
 11
598.344177
 21
465.752411
  0
LINE
  8
LC-006-012-----0
 62
     2
  6
DASHED
 10
460.454590
 20
465.752411
 11
572.454590
 21
465.752411
  0
LINE
  8
LC-003-002-----0
 62
     1
  6
CONTINUOUS
 10
572.454590
 20
465.752411
 11
598.344177
 21
465.752411
  0
LINE
  8
LC-006-012-----0
 62
     2
  6
DASHED
 10
460.454590
 20
440.752411
 11
572.454590
 21
440.752411
  0
LINE
  8
LC-003-002-----0
 62
     1
  6
CONTINUOUS
 10
572.454590
 20
440.752411
 11
597.855103
 21
440.752411
  0
LINE
  8
LC-004-006-----0
 62
     2
  6
DASHDOT
 10
648.954895
 20
453.252411
 11
704.001465
 21
453.252411
  0
LINE
  8
LC-004-006-----0
 62
     2
  6
DASHDOT
 10
675.818176
 20
488.333862
 11
675.818176
 21
417.000153
  0
CIRCLE
  8
LC-003-002-----0
 62
     1
  6
CONTINUOUS
 10
675.818176
 20
453.252411
 40
12.500000
  0
CIRCLE
  8
LC-003-002-----0
 62
     1
  6
CONTINUOUS
 10
675.818176
 20
453.252411
 40
20.000000
  0
ARC
  8
LC-003-002-----0
 62
     1
  6
CONTINUOUS
 10
675.818176
 20
453.252411
 40
31.000000
 50
222.103453
 51
317.896552
  0
LINE
  8
LC-003-002-----0
 62
     1
  6
CONTINUOUS
 10
477.454590
 20
473.252411
 11
477.454590
 21
433.252411
  0
LINE
  8
LC-003-002-----0
 62
     1
  6
CONTINUOUS
 10
467.454590
 20
473.252411
 11
467.454590
 21
433.252411
  0
LINE
  8
LC-003-002-----0
 62
     1
  6
CONTINUOUS
 10
467.454590
 20
434.252411
 11
468.454590
 21
434.252411
  0
LINE
  8
LC-003-002-----0
 62
     1
  6
CONTINUOUS
 10
467.454590
 20
472.252411
 11
468.454590
 21
472.252411
  0
LINE
  8
LC-003-002-----0
 62
     1
  6
CONTINUOUS
 10
476.454590
 20
472.252411
 11
477.454590
 21
472.252411
  0
LINE
  8
LC-003-002-----0
 62
     1
  6
CONTINUOUS
 10
476.454590
 20
434.252411
 11
477.454590
 21
434.252411
  0
ARC
  8
LC-003-002-----0
 62
     1
  6
CONTINUOUS
 10
461.704590
 20
472.002411
 40
1.250000
 50
90.000003
 51
180.000009
  0
ARC
  8
LC-003-002-----0
 62
     1
  6
CONTINUOUS
 10
461.704590
 20
434.502411
 40
1.250000
 50
180.000009
 51
269.999997
  0
ARC
  8
LC-003-002-----0
 62
     1
  6
CONTINUOUS
 10
571.204590
 20
434.502411
 40
1.250000
 50
269.999997
 51
0.000000
  0
ARC
  8
LC-003-002-----0
 62
     1
  6
CONTINUOUS
 10
571.204590
 20
472.002411
 40
1.250000
 50
0.000000
 51
90.000003
  0
LINE
  8
LC-003-002-----0
 62
     1
  6
CONTINUOUS
 10
698.818176
 20
474.037018
 11
698.818176
 21
432.467804
  0
LINE
  8
LC-003-002-----0
 62
     1
  6
CONTINUOUS
 10
652.818176
 20
474.037018
 11
652.818176
 21
432.467804
  0
ARC
  8
LC-003-002-----0
 62
     1
  6
CONTINUOUS
 10
675.818176
 20
453.252411
 40
31.000000
 50
42.103448
 51
137.896547
  0
LINE
  8
LC-004-006-----0
 62
     2
  6
DASHDOT
 10
691.818176
 20
479.370667
 11
691.818176
 21
466.756195
  0
LINE
  8
LC-004-006-----0
 62
     2
  6
DASHDOT
 10
685.503174
 20
473.252411
 11
698.134521
 21
473.252411
  0
LINE
  8
LC-004-006-----0
 62
     2
  6
DASHDOT
 10
691.818176
 20
427.134186
 11
691.818176
 21
439.748657
  0
CIRCLE
  8
LC-003-002-----0
 62
     1
  6
CONTINUOUS
 10
691.818176
 20
473.252411
 40
2.900000
  0
CIRCLE
  8
LC-006-012-----0
 62
     2
  6
DASHED
 10
691.818176
 20
473.252411
 40
5.000000
  0
LINE
  8
LC-004-006-----0
 62
     2
  6
DASHDOT
 10
685.503174
 20
433.252411
 11
698.134521
 21
433.252411
  0
CIRCLE
  8
LC-003-002-----0
 62
     1
  6
CONTINUOUS
 10
691.818176
 20
433.252411
 40
2.900000
  0
CIRCLE
  8
LC-006-012-----0
 62
     2
  6
DASHED
 10
691.818176
 20
433.252411
 40
5.000000
  0
LINE
  8
LC-004-006-----0
 62
     2
  6
DASHDOT
 10
659.818176
 20
479.370667
 11
659.818176
 21
466.756195
  0
LINE
  8
LC-004-006-----0
 62
     2
  6
DASHDOT
 10
666.133118
 20
473.252411
 11
653.501770
 21
473.252411
  0
CIRCLE
  8
LC-003-002-----0
 62
     1
  6
CONTINUOUS
 10
659.818176
 20
473.252411
 40
2.900000
  0
CIRCLE
  8
LC-006-012-----0
 62
     2
  6
DASHED
 10
659.818176
 20
473.252411
 40
5.000000
  0
LINE
  8
LC-004-006-----0
 62
     2
  6
DASHDOT
 10
659.818176
 20
427.134186
 11
659.818176
 21
439.748657
  0
LINE
  8
LC-004-006-----0
 62
     2
  6
DASHDOT
 10
666.133118
 20
433.252411
 11
653.501770
 21
433.252411
  0
CIRCLE
  8
LC-003-002-----0
 62
     1
  6
CONTINUOUS
 10
659.818176
 20
433.252411
 40
2.900000
  0
CIRCLE
  8
LC-006-012-----0
 62
     2
  6
DASHED
 10
659.818176
 20
433.252411
 40
5.000000
  0
LINE
  8
LC-004-006-----0
 62
     2
  6
DASHDOT
 10
477.443573
 20
473.252411
 11
467.780121
 21
473.252411
  0
LINE
  8
LC-006-012-----0
 62
     2
  6
DASHED
 10
470.754578
 20
470.352417
 11
468.454590
 21
470.352417
  0
LINE
  8
LC-006-012-----0
 62
     2
  6
DASHED
 10
476.454590
 20
468.252411
 11
470.754578
 21
468.252411
  0
LINE
  8
LC-006-012-----0
 62
     2
  6
DASHED
 10
470.754578
 20
478.252411
 11
470.754578
 21
468.252411
  0
LINE
  8
LC-006-012-----0
 62
     2
  6
DASHED
 10
476.454590
 20
478.252411
 11
470.754578
 21
478.252411
  0
LINE
  8
LC-006-012-----0
 62
     2
  6
DASHED
 10
470.754578
 20
476.152405
 11
468.454590
 21
476.152405
  0
LINE
  8
LC-004-006-----0
 62
     2
  6
DASHDOT
 10
477.443573
 20
433.252411
 11
467.780121
 21
433.252411
  0
LINE
  8
LC-006-012-----0
 62
     2
  6
DASHED
 10
470.754578
 20
436.152405
 11
468.454590
 21
436.152405
  0
LINE
  8
LC-006-012-----0
 62
     2
  6
DASHED
 10
476.454590
 20
438.252411
 11
470.754578
 21
438.252411
  0
LINE
  8
LC-006-012-----0
 62
     2
  6
DASHED
 10
470.754578
 20
428.252411
 11
470.754578
 21
438.252411
  0
LINE
  8
LC-006-012-----0
 62
     2
  6
DASHED
 10
476.454590
 20
428.252411
 11
470.754578
 21
428.252411
  0
LINE
  8
LC-006-012-----0
 62
     2
  6
DASHED
 10
470.754578
 20
430.352417
 11
468.454590
 21
430.352417
  0
LINE
  8
LC-003-002-----0
 62
     1
  6
CONTINUOUS
 10
476.454590
 20
474.037018
 11
468.454590
 21
474.037018
  0
LINE
  8
LC-003-002-----0
 62
     1
  6
CONTINUOUS
 10
476.454590
 20
432.467804
 11
468.454590
 21
432.467804
  0
LINE
  8
LC-005-002-RND-0
 62
     2
  6
CONTINUOUS
 10
468.454590
 20
432.467804
 11
476.454590
 21
474.037018
  0
LINE
  8
LC-005-002-RND-0
 62
     2
  6
CONTINUOUS
 10
476.454590
 20
432.467804
 11
468.454590
 21
474.037018
  0
ENDSEC
  0
EOF
