  0
SECTION
  2
HEADER
  9
$LIMMIN
 10
220.673325
 20
-1.388283
  9
$LIMMAX
 10
576.808777
 20
110.182510
  9
$EXTMIN
 10
220.673325
 20
-1.388283
  9
$EXTMAX
 10
576.808777
 20
110.182510
  0
ENDSEC
  0
SECTION
  2
TABLES
  0
TABLE
  2
LTYPE
 70
     3
  0
LTYPE
  2
CONTINUOUS
 70
    64
  3
Ausgezogene Linie
 72
    65
 73
     0
 40
0.0
  0
LTYPE
  2
DASHED
 70
    64
  3
__ __ __ __ __ __ __ __ __ __ __ __ __ __ __
 72
    65
 73
     2
 40
0.75
 49
0.5
 49
-0.25
  0
LTYPE
  2
DASHDOT
 70
    64
  3
__ . __ . __ . __ . __ . __ . __ . __ . __ . __
 72
    65
 73
     4
 40
1.0
 49
0.5
 49
-0.25
 49
0.0
 49
-0.25
  0
ENDTAB
  0
TABLE
  2
LAYER
 70
     4
  0
LAYER
  2
LC-003-002-----0
 70
    64
 62
     7
  6
CONTINUOUS
  0
LAYER
  2
LC-004-006-----0
 70
    64
 62
     7
  6
CONTINUOUS
  0
LAYER
  2
LC-006-012-----0
 70
    64
 62
     7
  6
CONTINUOUS
  0
LAYER
  2
LC-005-002-RND-0
 70
    64
 62
     7
  6
CONTINUOUS
  0
ENDTAB
  0
TABLE
  2
STYLE
 70
     1
  0
STYLE
  2
TXT8
 70
    64
 40
0.0
 41
1.0
 50
0.0
 71
     0
 42
3.500000
  3
TXT8
  4

  0
ENDTAB
  0
ENDSEC
  0
SECTION
  2
BLOCKS
  0
ENDSEC
  0
SECTION
  2
ENTITIES
  0
LINE
  8
LC-004-006-----0
 62
     2
  6
DASHDOT
 10
220.673325
 20
53.411213
 11
433.748199
 21
53.411213
  0
LINE
  8
LC-003-002-----0
 62
     1
  6
CONTINUOUS
 10
261.294037
 20
84.411217
 11
397.044037
 21
84.411217
  0
LINE
  8
LC-003-002-----0
 62
     1
  6
CONTINUOUS
 10
261.294037
 20
22.411213
 11
397.044037
 21
22.411213
  0
LINE
  8
LC-003-002-----0
 62
     1
  6
CONTINUOUS
 10
248.294037
 20
102.411217
 11
259.294037
 21
102.411217
  0
LINE
  8
LC-003-002-----0
 62
     1
  6
CONTINUOUS
 10
259.294037
 20
4.411213
 11
248.294037
 21
4.411213
  0
LINE
  8
LC-003-002-----0
 62
     1
  6
CONTINUOUS
 10
247.294037
 20
101.411217
 11
247.294037
 21
5.411209
  0
LINE
  8
LC-003-002-----0
 62
     1
  6
CONTINUOUS
 10
260.294037
 20
101.411217
 11
260.294037
 21
5.411209
  0
LINE
  8
LC-003-002-----0
 62
     1
  6
CONTINUOUS
 10
398.294037
 20
83.161217
 11
398.294037
 21
23.661209
  0
LINE
  8
LC-003-002-----0
 62
     1
  6
CONTINUOUS
 10
228.504196
 20
73.411217
 11
247.294037
 21
73.411217
  0
LINE
  8
LC-003-002-----0
 62
     1
  6
CONTINUOUS
 10
225.732620
 20
33.411213
 11
247.294037
 21
33.411213
  0
LINE
  8
LC-005-002-RND-0
 62
     2
  6
CONTINUOUS
 10
225.732620
 20
33.411213
 11
227.470139
 21
40.260132
  0
LINE
  8
LC-005-002-RND-0
 62
     2
  6
CONTINUOUS
 10
227.470139
 20
40.260132
 11
224.850815
 21
57.939133
  0
LINE
  8
LC-005-002-RND-0
 62
     2
  6
CONTINUOUS
 10
224.850815
 20
57.939133
 11
229.377548
 21
66.969337
  0
LINE
  8
LC-005-002-RND-0
 62
     2
  6
CONTINUOUS
 10
229.377548
 20
66.969337
 11
228.504196
 21
73.411217
  0
LINE
  8
LC-005-002-RND-0
 62
     2
  6
CONTINUOUS
 10
428.632751
 20
33.411213
 11
429.745331
 21
39.615501
  0
LINE
  8
LC-005-002-RND-0
 62
     2
  6
CONTINUOUS
 10
429.745331
 20
39.615501
 11
426.964813
 21
47.872147
  0
LINE
  8
LC-005-002-RND-0
 62
     2
  6
CONTINUOUS
 10
426.964813
 20
47.872147
 11
429.919952
 21
60.775509
  0
LINE
  8
LC-005-002-RND-0
 62
     2
  6
CONTINUOUS
 10
429.919952
 20
60.775509
 11
428.573700
 21
73.411217
  0
LINE
  8
LC-006-012-----0
 62
     2
  6
DASHED
 10
247.294037
 20
73.411217
 11
398.294037
 21
73.411217
  0
LINE
  8
LC-003-002-----0
 62
     1
  6
CONTINUOUS
 10
398.294037
 20
73.411217
 11
428.573700
 21
73.411217
  0
LINE
  8
LC-006-012-----0
 62
     2
  6
DASHED
 10
247.294037
 20
33.411213
 11
398.294037
 21
33.411213
  0
LINE
  8
LC-003-002-----0
 62
     1
  6
CONTINUOUS
 10
398.294037
 20
33.411213
 11
428.632751
 21
33.411213
  0
LINE
  8
LC-004-006-----0
 62
     2
  6
DASHDOT
 10
464.825531
 20
53.411213
 11
576.808777
 21
53.411213
  0
LINE
  8
LC-004-006-----0
 62
     2
  6
DASHDOT
 10
520.533813
 20
110.182510
 11
520.533813
 21
-1.388283
  0
CIRCLE
  8
LC-003-002-----0
 62
     1
  6
CONTINUOUS
 10
520.533813
 20
53.411213
 40
20.000000
  0
CIRCLE
  8
LC-003-002-----0
 62
     1
  6
CONTINUOUS
 10
520.533813
 20
53.411213
 40
49.000000
  0
CIRCLE
  8
LC-006-012-----0
 62
     2
  6
DASHED
 10
520.533813
 20
53.411213
 40
31.000000
  0
CIRCLE
  8
LC-004-006-----0
 62
     2
  6
DASHDOT
 10
520.533813
 20
53.411213
 40
40.000000
  0
CIRCLE
  8
LC-003-002-----0
 62
     1
  6
CONTINUOUS
 10
520.533813
 20
93.411217
 40
7.500000
  0
CIRCLE
  8
LC-003-002-----0
 62
     1
  6
CONTINUOUS
 10
520.533813
 20
93.411217
 40
4.500000
  0
CIRCLE
  8
LC-003-002-----0
 62
     1
  6
CONTINUOUS
 10
480.533813
 20
53.411213
 40
7.500000
  0
CIRCLE
  8
LC-003-002-----0
 62
     1
  6
CONTINUOUS
 10
480.533813
 20
53.411213
 40
4.500000
  0
CIRCLE
  8
LC-003-002-----0
 62
     1
  6
CONTINUOUS
 10
520.533813
 20
13.411213
 40
7.500000
  0
CIRCLE
  8
LC-003-002-----0
 62
     1
  6
CONTINUOUS
 10
520.533813
 20
13.411213
 40
4.500000
  0
CIRCLE
  8
LC-003-002-----0
 62
     1
  6
CONTINUOUS
 10
560.533813
 20
53.411213
 40
4.500000
  0
CIRCLE
  8
LC-003-002-----0
 62
     1
  6
CONTINUOUS
 10
560.533813
 20
53.411213
 40
7.500000
  0
LINE
  8
LC-004-006-----0
 62
     2
  6
DASHDOT
 10
266.157135
 20
93.411217
 11
241.882111
 21
93.411217
  0
LINE
  8
LC-006-012-----0
 62
     2
  6
DASHED
 10
256.294037
 20
100.911217
 11
247.294037
 21
100.911217
  0
LINE
  8
LC-006-012-----0
 62
     2
  6
DASHED
 10
260.294037
 20
97.911217
 11
256.294037
 21
97.911217
  0
LINE
  8
LC-006-012-----0
 62
     2
  6
DASHED
 10
256.294037
 20
100.911217
 11
256.294037
 21
85.911217
  0
LINE
  8
LC-006-012-----0
 62
     2
  6
DASHED
 10
256.294037
 20
85.911217
 11
247.294037
 21
85.911217
  0
LINE
  8
LC-006-012-----0
 62
     2
  6
DASHED
 10
260.294037
 20
88.911217
 11
256.294037
 21
88.911217
  0
LINE
  8
LC-004-006-----0
 62
     2
  6
DASHDOT
 10
266.157135
 20
13.411213
 11
241.882111
 21
13.411213
  0
LINE
  8
LC-006-012-----0
 62
     2
  6
DASHED
 10
256.294037
 20
5.911213
 11
247.294037
 21
5.911213
  0
LINE
  8
LC-006-012-----0
 62
     2
  6
DASHED
 10
260.294037
 20
8.911213
 11
256.294037
 21
8.911213
  0
LINE
  8
LC-006-012-----0
 62
     2
  6
DASHED
 10
256.294037
 20
5.911213
 11
256.294037
 21
20.911213
  0
LINE
  8
LC-006-012-----0
 62
     2
  6
DASHED
 10
256.294037
 20
20.911213
 11
247.294037
 21
20.911213
  0
LINE
  8
LC-006-012-----0
 62
     2
  6
DASHED
 10
260.294037
 20
17.911213
 11
256.294037
 21
17.911213
  0
LINE
  8
LC-006-012-----0
 62
     2
  6
DASHED
 10
256.294037
 20
60.911213
 11
247.294037
 21
60.911213
  0
LINE
  8
LC-006-012-----0
 62
     2
  6
DASHED
 10
260.294037
 20
57.911213
 11
256.294037
 21
57.911213
  0
LINE
  8
LC-006-012-----0
 62
     2
  6
DASHED
 10
256.294037
 20
60.911213
 11
256.294037
 21
45.911213
  0
LINE
  8
LC-006-012-----0
 62
     2
  6
DASHED
 10
256.294037
 20
45.911213
 11
247.294037
 21
45.911213
  0
LINE
  8
LC-006-012-----0
 62
     2
  6
DASHED
 10
260.294037
 20
48.911213
 11
256.294037
 21
48.911213
  0
LINE
  8
LC-003-002-----0
 62
     1
  6
CONTINUOUS
 10
248.294037
 20
4.411213
 11
247.294037
 21
5.411213
  0
LINE
  8
LC-003-002-----0
 62
     1
  6
CONTINUOUS
 10
248.294037
 20
102.411217
 11
247.294037
 21
101.411217
  0
LINE
  8
LC-003-002-----0
 62
     1
  6
CONTINUOUS
 10
248.294037
 20
4.411213
 11
248.294037
 21
102.411217
  0
LINE
  8
LC-003-002-----0
 62
     1
  6
CONTINUOUS
 10
259.294037
 20
102.411217
 11
260.294037
 21
101.411217
  0
LINE
  8
LC-003-002-----0
 62
     1
  6
CONTINUOUS
 10
260.294037
 20
5.411213
 11
259.294037
 21
4.411213
  0
LINE
  8
LC-003-002-----0
 62
     1
  6
CONTINUOUS
 10
259.294037
 20
102.411217
 11
259.294037
 21
4.411209
  0
ARC
  8
LC-003-002-----0
 62
     1
  6
CONTINUOUS
 10
397.044037
 20
83.161217
 40
1.250000
 50
0.000000
 51
90.000003
  0
ARC
  8
LC-003-002-----0
 62
     1
  6
CONTINUOUS
 10
397.044037
 20
23.661213
 40
1.250000
 50
269.999997
 51
0.000000
  0
LINE
  8
LC-003-002-----0
 62
     1
  6
CONTINUOUS
 10
261.294037
 20
84.411217
 11
261.294037
 21
22.411209
  0
LINE
  8
LC-003-002-----0
 62
     1
  6
CONTINUOUS
 10
260.294037
 20
83.411217
 11
261.294037
 21
83.411217
  0
LINE
  8
LC-003-002-----0
 62
     1
  6
CONTINUOUS
 10
260.294037
 20
23.411213
 11
261.294037
 21
23.411213
  0
CIRCLE
  8
LC-003-002-----0
 62
     1
  6
CONTINUOUS
 10
520.533813
 20
53.411213
 40
48.000000
  0
ENDSEC
  0
EOF
