  0
SECTION
  2
HEADER
  9
$LIMMIN
 10
111.951790
 20
469.214783
  9
$LIMMAX
 10
291.941040
 20
512.971741
  9
$EXTMIN
 10
111.951790
 20
469.214783
  9
$EXTMAX
 10
291.941040
 20
512.971741
  0
ENDSEC
  0
SECTION
  2
TABLES
  0
TABLE
  2
LTYPE
 70
     3
  0
LTYPE
  2
CONTINUOUS
 70
    64
  3
Ausgezogene Linie
 72
    65
 73
     0
 40
0.0
  0
LTYPE
  2
DASHED
 70
    64
  3
__ __ __ __ __ __ __ __ __ __ __ __ __ __ __
 72
    65
 73
     2
 40
0.75
 49
0.5
 49
-0.25
  0
LTYPE
  2
DASHDOT
 70
    64
  3
__ . __ . __ . __ . __ . __ . __ . __ . __ . __
 72
    65
 73
     4
 40
1.0
 49
0.5
 49
-0.25
 49
0.0
 49
-0.25
  0
ENDTAB
  0
TABLE
  2
LAYER
 70
     5
  0
LAYER
  2
LC-INFO-1-1-MM-A1-0
 70
    64
 62
     7
  6
CONTINUOUS
  0
LAYER
  2
LC-003-002-----0
 70
    64
 62
     7
  6
CONTINUOUS
  0
LAYER
  2
LC-005-002-RND-0
 70
    64
 62
     7
  6
CONTINUOUS
  0
LAYER
  2
LC-008-003-----0
 70
    64
 62
     7
  6
CONTINUOUS
  0
LAYER
  2
LC-004-005-----0
 70
    64
 62
     7
  6
CONTINUOUS
  0
ENDTAB
  0
TABLE
  2
STYLE
 70
     1
  0
STYLE
  2
TXT8
 70
    64
 40
0.0
 41
1.0
 50
0.0
 71
     0
 42
3.500000
  3
TXT8
  4

  0
ENDTAB
  0
ENDSEC
  0
SECTION
  2
BLOCKS
  0
ENDSEC
  0
SECTION
  2
ENTITIES
  0
LINE
  8
LC-004-005-----0
 62
     2
  6
CONTINUOUS
 10
204.370499
 20
509.840637
 11
205.870499
 21
511.340637
  0
LINE
  8
LC-004-005-----0
 62
     2
  6
CONTINUOUS
 10
200.649170
 20
508.240631
 11
201.966370
 21
509.557831
  0
LINE
  8
LC-004-005-----0
 62
     2
  6
CONTINUOUS
 10
202.249176
 20
509.840637
 11
203.749176
 21
511.340637
  0
LINE
  8
LC-004-005-----0
 62
     2
  6
CONTINUOUS
 10
200.466370
 20
510.179138
 11
201.627853
 21
511.340637
  0
LINE
  8
LC-004-005-----0
 62
     2
  6
CONTINUOUS
 10
165.914658
 20
496.840637
 11
167.466370
 21
498.392334
  0
LINE
  8
LC-004-005-----0
 62
     2
  6
CONTINUOUS
 10
163.793335
 20
496.840637
 11
167.466370
 21
500.513672
  0
LINE
  8
LC-004-005-----0
 62
     2
  6
CONTINUOUS
 10
161.672012
 20
496.840637
 11
165.672012
 21
500.840637
  0
LINE
  8
LC-004-005-----0
 62
     2
  6
CONTINUOUS
 10
159.550690
 20
496.840637
 11
163.550690
 21
500.840637
  0
LINE
  8
LC-004-005-----0
 62
     2
  6
CONTINUOUS
 10
157.451416
 20
496.862671
 11
157.594299
 21
497.005554
  0
LINE
  8
LC-004-005-----0
 62
     2
  6
CONTINUOUS
 10
157.624664
 20
497.035919
 11
161.429367
 21
500.840637
  0
LINE
  8
LC-004-005-----0
 62
     2
  6
CONTINUOUS
 10
155.308044
 20
496.840637
 11
159.308044
 21
500.840637
  0
LINE
  8
LC-004-005-----0
 62
     2
  6
CONTINUOUS
 10
153.186737
 20
496.840637
 11
157.186737
 21
500.840637
  0
LINE
  8
LC-004-005-----0
 62
     2
  6
CONTINUOUS
 10
151.065414
 20
496.840637
 11
155.065414
 21
500.840637
  0
LINE
  8
LC-004-005-----0
 62
     2
  6
CONTINUOUS
 10
148.944092
 20
496.840637
 11
152.944092
 21
500.840637
  0
LINE
  8
LC-004-005-----0
 62
     2
  6
CONTINUOUS
 10
146.822769
 20
496.840637
 11
150.822769
 21
500.840637
  0
LINE
  8
LC-004-005-----0
 62
     2
  6
CONTINUOUS
 10
144.898361
 20
497.037537
 11
148.701447
 21
500.840637
  0
LINE
  8
LC-004-005-----0
 62
     2
  6
CONTINUOUS
 10
142.580124
 20
496.840637
 11
146.580124
 21
500.840637
  0
LINE
  8
LC-004-005-----0
 62
     2
  6
CONTINUOUS
 10
140.958801
 20
497.340637
 11
140.966370
 21
497.348175
  0
LINE
  8
LC-004-005-----0
 62
     2
  6
CONTINUOUS
 10
141.216370
 20
497.598175
 11
144.458801
 21
500.840637
  0
LINE
  8
LC-004-005-----0
 62
     2
  6
CONTINUOUS
 10
140.466370
 20
498.969513
 11
142.337494
 21
500.840637
  0
LINE
  8
LC-004-005-----0
 62
     2
  6
CONTINUOUS
 10
204.098419
 20
496.840637
 11
206.466370
 21
499.208588
  0
LINE
  8
LC-004-005-----0
 62
     2
  6
CONTINUOUS
 10
202.153397
 20
497.016937
 11
206.466370
 21
501.329895
  0
LINE
  8
LC-004-005-----0
 62
     2
  6
CONTINUOUS
 10
199.855774
 20
496.840637
 11
204.855774
 21
501.840637
  0
LINE
  8
LC-004-005-----0
 62
     2
  6
CONTINUOUS
 10
197.734451
 20
496.840637
 11
202.734451
 21
501.840637
  0
LINE
  8
LC-004-005-----0
 62
     2
  6
CONTINUOUS
 10
195.613144
 20
496.840637
 11
199.466370
 21
500.693848
  0
LINE
  8
LC-004-005-----0
 62
     2
  6
CONTINUOUS
 10
200.466370
 20
501.693848
 11
201.966370
 21
503.193848
  0
LINE
  8
LC-004-005-----0
 62
     2
  6
CONTINUOUS
 10
193.491821
 20
496.840637
 11
197.491821
 21
500.840637
  0
LINE
  8
LC-004-005-----0
 62
     2
  6
CONTINUOUS
 10
191.370499
 20
496.840637
 11
195.370499
 21
500.840637
  0
LINE
  8
LC-004-005-----0
 62
     2
  6
CONTINUOUS
 10
189.373840
 20
496.965271
 11
193.249176
 21
500.840637
  0
LINE
  8
LC-004-005-----0
 62
     2
  6
CONTINUOUS
 10
187.127853
 20
496.840637
 11
191.127853
 21
500.840637
  0
LINE
  8
LC-004-005-----0
 62
     2
  6
CONTINUOUS
 10
185.006531
 20
496.840637
 11
189.006531
 21
500.840637
  0
LINE
  8
LC-004-005-----0
 62
     2
  6
CONTINUOUS
 10
182.885208
 20
496.840637
 11
186.885208
 21
500.840637
  0
LINE
  8
LC-004-005-----0
 62
     2
  6
CONTINUOUS
 10
180.763901
 20
496.840637
 11
184.763901
 21
500.840637
  0
LINE
  8
LC-004-005-----0
 62
     2
  6
CONTINUOUS
 10
178.642578
 20
496.840637
 11
182.642578
 21
500.840637
  0
LINE
  8
LC-004-005-----0
 62
     2
  6
CONTINUOUS
 10
176.521255
 20
496.840637
 11
180.521255
 21
500.840637
  0
LINE
  8
LC-004-005-----0
 62
     2
  6
CONTINUOUS
 10
174.399933
 20
496.840637
 11
178.399933
 21
500.840637
  0
LINE
  8
LC-004-005-----0
 62
     2
  6
CONTINUOUS
 10
172.278610
 20
496.840637
 11
176.278610
 21
500.840637
  0
LINE
  8
LC-004-005-----0
 62
     2
  6
CONTINUOUS
 10
171.466370
 20
498.149689
 11
174.157288
 21
500.840637
  0
LINE
  8
LC-004-005-----0
 62
     2
  6
CONTINUOUS
 10
171.466370
 20
500.271027
 11
172.035965
 21
500.840637
  0
LINE
  8
LC-004-005-----0
 62
     2
  6
CONTINUOUS
 10
229.616013
 20
495.340637
 11
229.616013
 21
495.340637
  0
LINE
  8
LC-004-005-----0
 62
     2
  6
CONTINUOUS
 10
229.616013
 20
495.340637
 11
228.415359
 21
493.368134
  0
LINE
  8
LC-004-005-----0
 62
     2
  6
CONTINUOUS
 10
228.415359
 20
493.368134
 11
228.415359
 21
493.368134
  0
LINE
  8
LC-004-005-----0
 62
     2
  6
CONTINUOUS
 10
228.415359
 20
493.368134
 11
228.575989
 21
491.914764
  0
LINE
  8
LC-004-005-----0
 62
     2
  6
CONTINUOUS
 10
228.575989
 20
491.914764
 11
228.575989
 21
491.914764
  0
LINE
  8
LC-004-005-----0
 62
     2
  6
CONTINUOUS
 10
228.575989
 20
491.914764
 11
228.254715
 21
490.582520
  0
LINE
  8
LC-004-005-----0
 62
     2
  6
CONTINUOUS
 10
228.254715
 20
490.582520
 11
228.254715
 21
490.582520
  0
LINE
  8
LC-004-005-----0
 62
     2
  6
CONTINUOUS
 10
228.254715
 20
490.582520
 11
230.343033
 21
490.098083
  0
LINE
  8
LC-004-005-----0
 62
     2
  6
CONTINUOUS
 10
230.343033
 20
490.098083
 11
230.343033
 21
490.098083
  0
LINE
  8
LC-004-005-----0
 62
     2
  6
CONTINUOUS
 10
230.343033
 20
490.098083
 11
229.539825
 21
487.918060
  0
LINE
  8
LC-004-005-----0
 62
     2
  6
CONTINUOUS
 10
229.539825
 20
487.918060
 11
229.539825
 21
487.918060
  0
LINE
  8
LC-004-005-----0
 62
     2
  6
CONTINUOUS
 10
229.539825
 20
487.918060
 11
230.097931
 21
487.340637
  0
LINE
  8
LC-004-005-----0
 62
     2
  6
CONTINUOUS
 10
114.200737
 20
495.340637
 11
114.200737
 21
495.340637
  0
LINE
  8
LC-004-005-----0
 62
     2
  6
CONTINUOUS
 10
114.200737
 20
495.340637
 11
114.843292
 21
492.883667
  0
LINE
  8
LC-004-005-----0
 62
     2
  6
CONTINUOUS
 10
114.843292
 20
492.883667
 11
114.843292
 21
492.883667
  0
LINE
  8
LC-004-005-----0
 62
     2
  6
CONTINUOUS
 10
114.843292
 20
492.883667
 11
113.879456
 21
490.945862
  0
LINE
  8
LC-004-005-----0
 62
     2
  6
CONTINUOUS
 10
113.879456
 20
490.945862
 11
113.879456
 21
490.945862
  0
LINE
  8
LC-004-005-----0
 62
     2
  6
CONTINUOUS
 10
113.879456
 20
490.945862
 11
113.879456
 21
489.492523
  0
LINE
  8
LC-004-005-----0
 62
     2
  6
CONTINUOUS
 10
113.879456
 20
489.492523
 11
113.879456
 21
489.492523
  0
LINE
  8
LC-004-005-----0
 62
     2
  6
CONTINUOUS
 10
113.879456
 20
489.492523
 11
112.754982
 21
487.340637
  0
LINE
  8
LC-005-002-RND-0
 62
     2
  6
DASHDOT
 10
231.467499
 20
491.340637
 11
111.951790
 21
491.340637
  0
LINE
  8
LC-003-002-----0
 62
     1
  6
CONTINUOUS
 10
206.466370
 20
471.840637
 11
206.466370
 21
491.340637
  0
LINE
  8
LC-003-002-----0
 62
     1
  6
CONTINUOUS
 10
199.466370
 20
500.840637
 11
140.966370
 21
500.840637
  0
LINE
  8
LC-003-002-----0
 62
     1
  6
CONTINUOUS
 10
199.466370
 20
481.840637
 11
140.966370
 21
481.840637
  0
LINE
  8
LC-003-002-----0
 62
     1
  6
CONTINUOUS
 10
200.466370
 20
510.840637
 11
200.466370
 21
500.540619
  0
LINE
  8
LC-003-002-----0
 62
     1
  6
CONTINUOUS
 10
200.966370
 20
511.340637
 11
205.966370
 21
511.340637
  0
LINE
  8
LC-003-002-----0
 62
     1
  6
CONTINUOUS
 10
200.966370
 20
471.340637
 11
205.966370
 21
471.340637
  0
LINE
  8
LC-003-002-----0
 62
     1
  6
CONTINUOUS
 10
140.466370
 20
500.340637
 11
140.466370
 21
495.340637
  0
LINE
  8
LC-005-002-RND-0
 62
     2
  6
DASHDOT
 10
169.466370
 20
508.388916
 11
169.466370
 21
496.135376
  0
LINE
  8
LC-003-002-----0
 62
     1
  6
CONTINUOUS
 10
166.566376
 20
502.240631
 11
166.566376
 21
500.840637
  0
LINE
  8
LC-003-002-----0
 62
     1
  6
CONTINUOUS
 10
172.366364
 20
502.240631
 11
172.366364
 21
500.840637
  0
LINE
  8
LC-003-002-----0
 62
     1
  6
CONTINUOUS
 10
168.266373
 20
502.240631
 11
168.266373
 21
500.840637
  0
LINE
  8
LC-003-002-----0
 62
     1
  6
CONTINUOUS
 10
172.366364
 20
502.240631
 11
166.566376
 21
502.240631
  0
LINE
  8
LC-003-002-----0
 62
     1
  6
CONTINUOUS
 10
170.666367
 20
502.240631
 11
170.666367
 21
500.840637
  0
LINE
  8
LC-003-002-----0
 62
     1
  6
CONTINUOUS
 10
167.466370
 20
503.240631
 11
167.466370
 21
502.240631
  0
LINE
  8
LC-003-002-----0
 62
     1
  6
CONTINUOUS
 10
171.466370
 20
503.240631
 11
171.466370
 21
502.240631
  0
LINE
  8
LC-003-002-----0
 62
     1
  6
CONTINUOUS
 10
171.966370
 20
503.240631
 11
166.966370
 21
503.240631
  0
LINE
  8
LC-003-002-----0
 62
     1
  6
CONTINUOUS
 10
166.966370
 20
504.240631
 11
166.966370
 21
503.240631
  0
LINE
  8
LC-003-002-----0
 62
     1
  6
CONTINUOUS
 10
171.966370
 20
504.240631
 11
171.966370
 21
503.240631
  0
LINE
  8
LC-003-002-----0
 62
     1
  6
CONTINUOUS
 10
171.966370
 20
504.240631
 11
166.966370
 21
504.240631
  0
LINE
  8
LC-003-002-----0
 62
     1
  6
CONTINUOUS
 10
170.966370
 20
506.240631
 11
167.966370
 21
506.240631
  0
ARC
  8
LC-003-002-----0
 62
     1
  6
CONTINUOUS
 10
169.466370
 20
504.240631
 40
2.338464
 50
58.788702
 51
121.211296
  0
LINE
  8
LC-003-002-----0
 62
     1
  6
CONTINUOUS
 10
170.966370
 20
506.240631
 11
171.966370
 21
504.240631
  0
LINE
  8
LC-003-002-----0
 62
     1
  6
CONTINUOUS
 10
167.966370
 20
506.240631
 11
166.966370
 21
504.240631
  0
LINE
  8
LC-005-002-RND-0
 62
     2
  6
DASHDOT
 10
248.255386
 20
491.340637
 11
291.941040
 21
491.340637
  0
LINE
  8
LC-005-002-RND-0
 62
     2
  6
DASHDOT
 10
275.079803
 20
496.385162
 11
282.090881
 21
503.396271
  0
CIRCLE
  8
LC-003-002-----0
 62
     1
  6
CONTINUOUS
 10
270.035248
 20
491.340637
 40
20.000000
  0
CIRCLE
  8
LC-005-002-RND-0
 62
     2
  6
DASHDOT
 10
270.035248
 20
491.340637
 40
14.500000
  0
LINE
  8
LC-003-002-----0
 62
     1
  6
CONTINUOUS
 10
167.466370
 20
500.840637
 11
167.466370
 21
496.840637
  0
LINE
  8
LC-008-003-----0
 62
     2
  6
DASHED
 10
206.466370
 20
487.340637
 11
140.466370
 21
487.340637
  0
CIRCLE
  8
LC-003-002-----0
 62
     1
  6
CONTINUOUS
 10
270.035248
 20
491.340637
 40
9.500000
  0
CIRCLE
  8
LC-003-002-----0
 62
     1
  6
CONTINUOUS
 10
270.035248
 20
491.340637
 40
4.000000
  0
LINE
  8
LC-005-002-RND-0
 62
     2
  6
DASHDOT
 10
208.292603
 20
505.840637
 11
199.118561
 21
505.840637
  0
LINE
  8
LC-005-002-RND-0
 62
     2
  6
DASHDOT
 10
208.292603
 20
476.840637
 11
199.118561
 21
476.840637
  0
LINE
  8
LC-003-002-----0
 62
     1
  6
CONTINUOUS
 10
201.966370
 20
509.840637
 11
201.966370
 21
501.840637
  0
LINE
  8
LC-008-003-----0
 62
     2
  6
DASHED
 10
201.966370
 20
472.840637
 11
201.966370
 21
480.840637
  0
LINE
  8
LC-008-003-----0
 62
     2
  6
DASHED
 10
206.466370
 20
472.840637
 11
201.966370
 21
472.840637
  0
LINE
  8
LC-008-003-----0
 62
     2
  6
DASHED
 10
206.466370
 20
480.840637
 11
201.966370
 21
480.840637
  0
LINE
  8
LC-008-003-----0
 62
     2
  6
DASHED
 10
201.966370
 20
474.440613
 11
200.466370
 21
474.440613
  0
LINE
  8
LC-008-003-----0
 62
     2
  6
DASHED
 10
201.966370
 20
479.240631
 11
200.466370
 21
479.240631
  0
CIRCLE
  8
LC-008-003-----0
 62
     2
  6
DASHED
 10
270.035248
 20
476.840637
 40
4.000000
  0
CIRCLE
  8
LC-003-002-----0
 62
     1
  6
CONTINUOUS
 10
270.035248
 20
476.840637
 40
2.400000
  0
CIRCLE
  8
LC-003-002-----0
 62
     1
  6
CONTINUOUS
 10
284.535248
 20
491.340637
 40
2.400000
  0
CIRCLE
  8
LC-008-003-----0
 62
     2
  6
DASHED
 10
284.535248
 20
491.340637
 40
4.000000
  0
CIRCLE
  8
LC-008-003-----0
 62
     2
  6
DASHED
 10
255.535248
 20
491.340637
 40
4.000000
  0
CIRCLE
  8
LC-003-002-----0
 62
     1
  6
CONTINUOUS
 10
255.535248
 20
491.340637
 40
2.400000
  0
LINE
  8
LC-003-002-----0
 62
     1
  6
CONTINUOUS
 10
199.466370
 20
500.840637
 11
199.466370
 21
500.540619
  0
LINE
  8
LC-003-002-----0
 62
     1
  6
CONTINUOUS
 10
200.466370
 20
500.540619
 11
199.466370
 21
500.540619
  0
LINE
  8
LC-003-002-----0
 62
     1
  6
CONTINUOUS
 10
200.466370
 20
482.140625
 11
199.466370
 21
482.140625
  0
ARC
  8
LC-003-002-----0
 62
     1
  6
CONTINUOUS
 10
140.966370
 20
482.340637
 40
0.500000
 50
180.000009
 51
269.999997
  0
ARC
  8
LC-003-002-----0
 62
     1
  6
CONTINUOUS
 10
140.966370
 20
500.340637
 40
0.500000
 50
90.000003
 51
180.000009
  0
LINE
  8
LC-003-002-----0
 62
     1
  6
CONTINUOUS
 10
200.966370
 20
511.340637
 11
200.466370
 21
510.840637
  0
LINE
  8
LC-003-002-----0
 62
     1
  6
CONTINUOUS
 10
200.466370
 20
471.840637
 11
200.966370
 21
471.340637
  0
LINE
  8
LC-003-002-----0
 62
     1
  6
CONTINUOUS
 10
200.966370
 20
491.340637
 11
200.966370
 21
471.340637
  0
LINE
  8
LC-003-002-----0
 62
     1
  6
CONTINUOUS
 10
205.966370
 20
471.340637
 11
206.466370
 21
471.840637
  0
LINE
  8
LC-003-002-----0
 62
     1
  6
CONTINUOUS
 10
205.966370
 20
511.340637
 11
206.466370
 21
510.840637
  0
LINE
  8
LC-003-002-----0
 62
     1
  6
CONTINUOUS
 10
205.966370
 20
471.340637
 11
205.966370
 21
491.340637
  0
LINE
  8
LC-003-002-----0
 62
     1
  6
CONTINUOUS
 10
274.984985
 20
499.825897
 11
278.520538
 21
496.290375
  0
CIRCLE
  8
LC-008-003-----0
 62
     2
  6
DASHED
 10
270.035248
 20
505.840637
 40
4.000000
  0
LINE
  8
LC-003-002-----0
 62
     1
  6
CONTINUOUS
 10
277.742706
 20
499.048096
 11
276.752777
 21
498.058136
  0
LINE
  8
LC-003-002-----0
 62
     1
  6
CONTINUOUS
 10
279.510498
 20
497.280334
 11
275.974945
 21
500.815857
  0
LINE
  8
LC-005-002-RND-0
 62
     2
  6
DASHDOT
 10
270.035248
 20
469.214783
 11
270.035248
 21
512.971741
  0
LINE
  8
LC-003-002-----0
 62
     1
  6
CONTINUOUS
 10
277.035614
 20
501.169403
 11
276.328491
 21
500.462311
  0
LINE
  8
LC-003-002-----0
 62
     1
  6
CONTINUOUS
 10
279.864044
 20
498.340973
 11
279.156921
 21
497.633881
  0
LINE
  8
LC-003-002-----0
 62
     1
  6
CONTINUOUS
 10
280.217590
 20
497.987427
 11
276.682068
 21
501.522949
  0
LINE
  8
LC-003-002-----0
 62
     1
  6
CONTINUOUS
 10
277.389160
 20
502.230072
 11
276.682068
 21
501.522949
  0
LINE
  8
LC-003-002-----0
 62
     1
  6
CONTINUOUS
 10
280.924683
 20
498.694550
 11
280.217590
 21
497.987427
  0
LINE
  8
LC-003-002-----0
 62
     1
  6
CONTINUOUS
 10
280.924683
 20
498.694550
 11
277.389160
 21
502.230072
  0
LINE
  8
LC-003-002-----0
 62
     1
  6
CONTINUOUS
 10
281.631805
 20
500.815857
 11
279.510498
 21
502.937164
  0
ARC
  8
LC-003-002-----0
 62
     1
  6
CONTINUOUS
 10
279.156921
 20
500.462311
 40
2.338464
 50
13.788703
 51
76.211299
  0
LINE
  8
LC-003-002-----0
 62
     1
  6
CONTINUOUS
 10
281.631805
 20
500.815857
 11
280.924683
 21
498.694550
  0
LINE
  8
LC-003-002-----0
 62
     1
  6
CONTINUOUS
 10
279.510498
 20
502.937164
 11
277.389160
 21
502.230072
  0
LINE
  8
LC-003-002-----0
 62
     1
  6
CONTINUOUS
 10
278.520538
 20
496.290375
 11
279.510498
 21
497.280334
  0
LINE
  8
LC-003-002-----0
 62
     1
  6
CONTINUOUS
 10
274.984985
 20
499.825897
 11
275.974945
 21
500.815857
  0
LINE
  8
LC-003-002-----0
 62
     1
  6
CONTINUOUS
 10
206.466370
 20
487.340637
 11
230.097931
 21
487.340637
  0
LINE
  8
LC-003-002-----0
 62
     1
  6
CONTINUOUS
 10
140.466370
 20
495.340637
 11
114.200737
 21
495.340637
  0
LINE
  8
LC-003-002-----0
 62
     1
  6
CONTINUOUS
 10
140.466370
 20
487.340637
 11
112.754982
 21
487.340637
  0
LINE
  8
LC-003-002-----0
 62
     1
  6
CONTINUOUS
 10
206.466370
 20
509.840637
 11
201.966370
 21
509.840637
  0
LINE
  8
LC-003-002-----0
 62
     1
  6
CONTINUOUS
 10
206.466370
 20
501.840637
 11
201.966370
 21
501.840637
  0
LINE
  8
LC-003-002-----0
 62
     1
  6
CONTINUOUS
 10
140.466370
 20
491.340637
 11
140.466370
 21
482.340637
  0
LINE
  8
LC-003-002-----0
 62
     1
  6
CONTINUOUS
 10
206.466370
 20
495.340637
 11
206.466370
 21
510.840637
  0
CIRCLE
  8
LC-003-002-----0
 62
     1
  6
CONTINUOUS
 10
270.035248
 20
491.340637
 40
19.500000
  0
LINE
  8
LC-003-002-----0
 62
     1
  6
CONTINUOUS
 10
206.466370
 20
495.340637
 11
229.616013
 21
495.340637
  0
CIRCLE
  8
LC-003-002-----0
 62
     1
  6
CONTINUOUS
 10
270.035248
 20
505.840637
 40
2.400000
  0
LINE
  8
LC-003-002-----0
 62
     1
  6
CONTINUOUS
 10
140.466370
 20
495.340637
 11
206.466370
 21
495.340637
  0
LINE
  8
LC-003-002-----0
 62
     1
  6
CONTINUOUS
 10
186.466370
 20
496.840637
 11
186.466370
 21
495.340637
  0
LINE
  8
LC-003-002-----0
 62
     1
  6
CONTINUOUS
 10
158.802917
 20
496.840637
 11
188.129822
 21
496.840637
  0
LINE
  8
LC-003-002-----0
 62
     1
  6
CONTINUOUS
 10
205.466370
 20
497.340637
 11
205.716370
 21
497.340637
  0
CIRCLE
  8
LC-003-002-----0
 62
     1
  6
CONTINUOUS
 10
195.966370
 20
496.090637
 40
0.750000
  0
CIRCLE
  8
LC-003-002-----0
 62
     1
  6
CONTINUOUS
 10
198.966370
 20
496.090637
 40
0.750000
  0
LINE
  8
LC-003-002-----0
 62
     1
  6
CONTINUOUS
 10
201.966370
 20
508.240631
 11
200.466370
 21
508.240631
  0
LINE
  8
LC-003-002-----0
 62
     1
  6
CONTINUOUS
 10
201.966370
 20
503.440613
 11
200.466370
 21
503.440613
  0
CIRCLE
  8
LC-003-002-----0
 62
     1
  6
CONTINUOUS
 10
197.466370
 20
496.090637
 40
0.750000
  0
CIRCLE
  8
LC-003-002-----0
 62
     1
  6
CONTINUOUS
 10
192.966370
 20
496.090637
 40
0.750000
  0
CIRCLE
  8
LC-003-002-----0
 62
     1
  6
CONTINUOUS
 10
194.466370
 20
496.090637
 40
0.750000
  0
CIRCLE
  8
LC-003-002-----0
 62
     1
  6
CONTINUOUS
 10
200.466370
 20
496.090637
 40
0.750000
  0
CIRCLE
  8
LC-003-002-----0
 62
     1
  6
CONTINUOUS
 10
191.466370
 20
496.090637
 40
0.750000
  0
CIRCLE
  8
LC-003-002-----0
 62
     1
  6
CONTINUOUS
 10
201.966370
 20
496.290619
 40
0.750000
  0
ARC
  8
LC-003-002-----0
 62
     1
  6
CONTINUOUS
 10
203.139603
 20
496.490631
 40
0.750000
 50
227.166577
 51
152.181860
  0
CIRCLE
  8
LC-003-002-----0
 62
     1
  6
CONTINUOUS
 10
189.966370
 20
496.290619
 40
0.750000
  0
LINE
  8
LC-003-002-----0
 62
     1
  6
CONTINUOUS
 10
190.476273
 20
496.840637
 11
201.456467
 21
496.840637
  0
LINE
  8
LC-003-002-----0
 62
     1
  6
CONTINUOUS
 10
203.802917
 20
496.840637
 11
205.466370
 21
496.840637
  0
ARC
  8
LC-003-002-----0
 62
     1
  6
CONTINUOUS
 10
188.793137
 20
496.490631
 40
0.750000
 50
27.818140
 51
312.833429
  0
LINE
  8
LC-003-002-----0
 62
     1
  6
CONTINUOUS
 10
205.966370
 20
497.840637
 11
205.966370
 21
495.340637
  0
LINE
  8
LC-003-002-----0
 62
     1
  6
CONTINUOUS
 10
205.716370
 20
497.840637
 11
205.966370
 21
497.840637
  0
LINE
  8
LC-003-002-----0
 62
     1
  6
CONTINUOUS
 10
205.716370
 20
497.840637
 11
205.716370
 21
495.340637
  0
LINE
  8
LC-003-002-----0
 62
     1
  6
CONTINUOUS
 10
205.466370
 20
497.340637
 11
205.466370
 21
495.340637
  0
LINE
  8
LC-003-002-----0
 62
     1
  6
CONTINUOUS
 10
205.966370
 20
497.340637
 11
206.466370
 21
497.340637
  0
LINE
  8
LC-003-002-----0
 62
     1
  6
CONTINUOUS
 10
160.466370
 20
496.840637
 11
160.466370
 21
495.340637
  0
LINE
  8
LC-003-002-----0
 62
     1
  6
CONTINUOUS
 10
141.466370
 20
497.340637
 11
141.216370
 21
497.340637
  0
CIRCLE
  8
LC-003-002-----0
 62
     1
  6
CONTINUOUS
 10
150.966370
 20
496.090637
 40
0.750000
  0
CIRCLE
  8
LC-003-002-----0
 62
     1
  6
CONTINUOUS
 10
147.966370
 20
496.090637
 40
0.750000
  0
CIRCLE
  8
LC-003-002-----0
 62
     1
  6
CONTINUOUS
 10
149.466370
 20
496.090637
 40
0.750000
  0
CIRCLE
  8
LC-003-002-----0
 62
     1
  6
CONTINUOUS
 10
153.966370
 20
496.090637
 40
0.750000
  0
CIRCLE
  8
LC-003-002-----0
 62
     1
  6
CONTINUOUS
 10
152.466370
 20
496.090637
 40
0.750000
  0
CIRCLE
  8
LC-003-002-----0
 62
     1
  6
CONTINUOUS
 10
146.466370
 20
496.090637
 40
0.750000
  0
CIRCLE
  8
LC-003-002-----0
 62
     1
  6
CONTINUOUS
 10
155.466370
 20
496.090637
 40
0.750000
  0
CIRCLE
  8
LC-003-002-----0
 62
     1
  6
CONTINUOUS
 10
144.966370
 20
496.290619
 40
0.750000
  0
ARC
  8
LC-003-002-----0
 62
     1
  6
CONTINUOUS
 10
143.793137
 20
496.490631
 40
0.750000
 50
27.818140
 51
312.833429
  0
CIRCLE
  8
LC-003-002-----0
 62
     1
  6
CONTINUOUS
 10
156.966370
 20
496.290619
 40
0.750000
  0
LINE
  8
LC-003-002-----0
 62
     1
  6
CONTINUOUS
 10
156.456467
 20
496.840637
 11
145.476273
 21
496.840637
  0
LINE
  8
LC-003-002-----0
 62
     1
  6
CONTINUOUS
 10
143.129822
 20
496.840637
 11
141.466370
 21
496.840637
  0
ARC
  8
LC-003-002-----0
 62
     1
  6
CONTINUOUS
 10
158.139603
 20
496.490631
 40
0.750000
 50
227.166577
 51
152.181860
  0
LINE
  8
LC-003-002-----0
 62
     1
  6
CONTINUOUS
 10
140.966370
 20
497.840637
 11
140.966370
 21
495.340637
  0
LINE
  8
LC-003-002-----0
 62
     1
  6
CONTINUOUS
 10
141.216370
 20
497.840637
 11
140.966370
 21
497.840637
  0
LINE
  8
LC-003-002-----0
 62
     1
  6
CONTINUOUS
 10
141.216370
 20
497.840637
 11
141.216370
 21
495.340637
  0
LINE
  8
LC-003-002-----0
 62
     1
  6
CONTINUOUS
 10
141.466370
 20
497.340637
 11
141.466370
 21
495.340637
  0
LINE
  8
LC-003-002-----0
 62
     1
  6
CONTINUOUS
 10
140.966370
 20
497.340637
 11
140.466370
 21
497.340637
  0
LINE
  8
LC-003-002-----0
 62
     1
  6
CONTINUOUS
 10
171.466370
 20
500.840637
 11
171.466370
 21
496.840637
  0
LINE
  8
LC-003-002-----0
 62
     1
  6
CONTINUOUS
 10
199.466370
 20
491.340637
 11
199.466370
 21
481.840637
  0
LINE
  8
LC-003-002-----0
 62
     1
  6
CONTINUOUS
 10
200.466370
 20
491.340637
 11
200.466370
 21
471.840637
  0
ENDSEC
  0
EOF
