  0
SECTION
  2
HEADER
  9
$LIMMIN
 10
93.951790
 20
310.241852
  9
$LIMMAX
 10
295.011383
 20
360.351166
  9
$EXTMIN
 10
93.951790
 20
310.241852
  9
$EXTMAX
 10
295.011383
 20
360.351166
  0
ENDSEC
  0
SECTION
  2
TABLES
  0
TABLE
  2
LTYPE
 70
     3
  0
LTYPE
  2
CONTINUOUS
 70
    64
  3
Ausgezogene Linie
 72
    65
 73
     0
 40
0.0
  0
LTYPE
  2
DASHED
 70
    64
  3
__ __ __ __ __ __ __ __ __ __ __ __ __ __ __
 72
    65
 73
     2
 40
0.75
 49
0.5
 49
-0.25
  0
LTYPE
  2
DASHDOT
 70
    64
  3
__ . __ . __ . __ . __ . __ . __ . __ . __ . __
 72
    65
 73
     4
 40
1.0
 49
0.5
 49
-0.25
 49
0.0
 49
-0.25
  0
ENDTAB
  0
TABLE
  2
LAYER
 70
     5
  0
LAYER
  2
LC-INFO-1-1-MM-A1-0
 70
    64
 62
     7
  6
CONTINUOUS
  0
LAYER
  2
LC-003-002-----0
 70
    64
 62
     7
  6
CONTINUOUS
  0
LAYER
  2
LC-005-002-RND-0
 70
    64
 62
     7
  6
CONTINUOUS
  0
LAYER
  2
LC-008-003-----0
 70
    64
 62
     7
  6
CONTINUOUS
  0
LAYER
  2
LC-004-005-----0
 70
    64
 62
     7
  6
CONTINUOUS
  0
ENDTAB
  0
TABLE
  2
STYLE
 70
     1
  0
STYLE
  2
TXT8
 70
    64
 40
0.0
 41
1.0
 50
0.0
 71
     0
 42
3.500000
  3
TXT8
  4

  0
ENDTAB
  0
ENDSEC
  0
SECTION
  2
BLOCKS
  0
ENDSEC
  0
SECTION
  2
ENTITIES
  0
LINE
  8
LC-004-005-----0
 62
     2
  6
CONTINUOUS
 10
205.713058
 20
357.143951
 11
204.713058
 21
358.143951
  0
LINE
  8
LC-004-005-----0
 62
     2
  6
CONTINUOUS
 10
202.884628
 20
357.143951
 11
201.884628
 21
358.143951
  0
LINE
  8
LC-004-005-----0
 62
     2
  6
CONTINUOUS
 10
201.656204
 20
355.543945
 11
200.466370
 21
356.733765
  0
LINE
  8
LC-004-005-----0
 62
     2
  6
CONTINUOUS
 10
161.466370
 20
347.650513
 11
160.972931
 21
348.143951
  0
LINE
  8
LC-004-005-----0
 62
     2
  6
CONTINUOUS
 10
161.466370
 20
344.822083
 11
158.144516
 21
348.143951
  0
LINE
  8
LC-004-005-----0
 62
     2
  6
CONTINUOUS
 10
160.316086
 20
343.143951
 11
155.316086
 21
348.143951
  0
LINE
  8
LC-004-005-----0
 62
     2
  6
CONTINUOUS
 10
157.487656
 20
343.143951
 11
152.487656
 21
348.143951
  0
LINE
  8
LC-004-005-----0
 62
     2
  6
CONTINUOUS
 10
154.659225
 20
343.143951
 11
149.659225
 21
348.143951
  0
LINE
  8
LC-004-005-----0
 62
     2
  6
CONTINUOUS
 10
151.830795
 20
343.143951
 11
146.830795
 21
348.143951
  0
LINE
  8
LC-004-005-----0
 62
     2
  6
CONTINUOUS
 10
148.799316
 20
343.346985
 11
144.002380
 21
348.143951
  0
LINE
  8
LC-004-005-----0
 62
     2
  6
CONTINUOUS
 10
146.173950
 20
343.143951
 11
141.173950
 21
348.143951
  0
LINE
  8
LC-004-005-----0
 62
     2
  6
CONTINUOUS
 10
143.345520
 20
343.143951
 11
138.345520
 21
348.143951
  0
LINE
  8
LC-004-005-----0
 62
     2
  6
CONTINUOUS
 10
140.517090
 20
343.143951
 11
135.517090
 21
348.143951
  0
LINE
  8
LC-004-005-----0
 62
     2
  6
CONTINUOUS
 10
137.688660
 20
343.143951
 11
132.688660
 21
348.143951
  0
LINE
  8
LC-004-005-----0
 62
     2
  6
CONTINUOUS
 10
134.860245
 20
343.143951
 11
129.860245
 21
348.143951
  0
LINE
  8
LC-004-005-----0
 62
     2
  6
CONTINUOUS
 10
132.031815
 20
343.143951
 11
127.031815
 21
348.143951
  0
LINE
  8
LC-004-005-----0
 62
     2
  6
CONTINUOUS
 10
129.203384
 20
343.143951
 11
124.203384
 21
348.143951
  0
LINE
  8
LC-004-005-----0
 62
     2
  6
CONTINUOUS
 10
125.883202
 20
343.635712
 11
122.466370
 21
347.052521
  0
LINE
  8
LC-004-005-----0
 62
     2
  6
CONTINUOUS
 10
123.046532
 20
343.643951
 11
122.466370
 21
344.224121
  0
LINE
  8
LC-004-005-----0
 62
     2
  6
CONTINUOUS
 10
206.466370
 20
347.905334
 11
205.227768
 21
349.143951
  0
LINE
  8
LC-004-005-----0
 62
     2
  6
CONTINUOUS
 10
206.466370
 20
345.076935
 11
202.399338
 21
349.143951
  0
LINE
  8
LC-004-005-----0
 62
     2
  6
CONTINUOUS
 10
201.966370
 20
349.576935
 11
200.799347
 21
350.743958
  0
LINE
  8
LC-004-005-----0
 62
     2
  6
CONTINUOUS
 10
205.216370
 20
343.498505
 11
200.466370
 21
348.248505
  0
LINE
  8
LC-004-005-----0
 62
     2
  6
CONTINUOUS
 10
202.217361
 20
343.669067
 11
197.742493
 21
348.143951
  0
LINE
  8
LC-004-005-----0
 62
     2
  6
CONTINUOUS
 10
199.914063
 20
343.143951
 11
194.914063
 21
348.143951
  0
LINE
  8
LC-004-005-----0
 62
     2
  6
CONTINUOUS
 10
197.085632
 20
343.143951
 11
192.085632
 21
348.143951
  0
LINE
  8
LC-004-005-----0
 62
     2
  6
CONTINUOUS
 10
194.257202
 20
343.143951
 11
189.257202
 21
348.143951
  0
LINE
  8
LC-004-005-----0
 62
     2
  6
CONTINUOUS
 10
191.428787
 20
343.143951
 11
186.428787
 21
348.143951
  0
LINE
  8
LC-004-005-----0
 62
     2
  6
CONTINUOUS
 10
188.600357
 20
343.143951
 11
183.600357
 21
348.143951
  0
LINE
  8
LC-004-005-----0
 62
     2
  6
CONTINUOUS
 10
185.771927
 20
343.143951
 11
180.771927
 21
348.143951
  0
LINE
  8
LC-004-005-----0
 62
     2
  6
CONTINUOUS
 10
182.943497
 20
343.143951
 11
177.943497
 21
348.143951
  0
LINE
  8
LC-004-005-----0
 62
     2
  6
CONTINUOUS
 10
179.535172
 20
343.723846
 11
175.115067
 21
348.143951
  0
LINE
  8
LC-004-005-----0
 62
     2
  6
CONTINUOUS
 10
177.286652
 20
343.143951
 11
172.286652
 21
348.143951
  0
LINE
  8
LC-004-005-----0
 62
     2
  6
CONTINUOUS
 10
174.458221
 20
343.143951
 11
169.458221
 21
348.143951
  0
LINE
  8
LC-004-005-----0
 62
     2
  6
CONTINUOUS
 10
171.629791
 20
343.143951
 11
166.629791
 21
348.143951
  0
LINE
  8
LC-004-005-----0
 62
     2
  6
CONTINUOUS
 10
168.801361
 20
343.143951
 11
165.466370
 21
346.478943
  0
LINE
  8
LC-004-005-----0
 62
     2
  6
CONTINUOUS
 10
165.972931
 20
343.143951
 11
165.466370
 21
343.650513
  0
LINE
  8
LC-004-005-----0
 62
     2
  6
CONTINUOUS
 10
229.616013
 20
341.143951
 11
228.973572
 21
339.723267
  0
LINE
  8
LC-004-005-----0
 62
     2
  6
CONTINUOUS
 10
228.973572
 20
339.723267
 11
228.415359
 21
337.171448
  0
LINE
  8
LC-004-005-----0
 62
     2
  6
CONTINUOUS
 10
228.415359
 20
337.171448
 11
228.415359
 21
337.171448
  0
LINE
  8
LC-004-005-----0
 62
     2
  6
CONTINUOUS
 10
228.415359
 20
337.171448
 11
228.575989
 21
335.718079
  0
LINE
  8
LC-004-005-----0
 62
     2
  6
CONTINUOUS
 10
228.575989
 20
335.718079
 11
228.575989
 21
335.718079
  0
LINE
  8
LC-004-005-----0
 62
     2
  6
CONTINUOUS
 10
228.575989
 20
335.718079
 11
228.254715
 21
334.385864
  0
LINE
  8
LC-004-005-----0
 62
     2
  6
CONTINUOUS
 10
228.254715
 20
334.385864
 11
228.254715
 21
334.385864
  0
LINE
  8
LC-004-005-----0
 62
     2
  6
CONTINUOUS
 10
228.254715
 20
334.385864
 11
230.343033
 21
333.901398
  0
LINE
  8
LC-004-005-----0
 62
     2
  6
CONTINUOUS
 10
230.343033
 20
333.901398
 11
229.872238
 21
332.235443
  0
LINE
  8
LC-004-005-----0
 62
     2
  6
CONTINUOUS
 10
229.872238
 20
332.235443
 11
229.539825
 21
329.721375
  0
LINE
  8
LC-004-005-----0
 62
     2
  6
CONTINUOUS
 10
229.539825
 20
329.721375
 11
229.539825
 21
329.721375
  0
LINE
  8
LC-004-005-----0
 62
     2
  6
CONTINUOUS
 10
229.539825
 20
329.721375
 11
230.097931
 21
329.143951
  0
LINE
  8
LC-004-005-----0
 62
     2
  6
CONTINUOUS
 10
96.200737
 20
341.143951
 11
96.699303
 21
339.532074
  0
LINE
  8
LC-004-005-----0
 62
     2
  6
CONTINUOUS
 10
96.699303
 20
339.532074
 11
96.843292
 21
336.686981
  0
LINE
  8
LC-004-005-----0
 62
     2
  6
CONTINUOUS
 10
96.843292
 20
336.686981
 11
96.843292
 21
336.686981
  0
LINE
  8
LC-004-005-----0
 62
     2
  6
CONTINUOUS
 10
96.843292
 20
336.686981
 11
95.879456
 21
334.749176
  0
LINE
  8
LC-004-005-----0
 62
     2
  6
CONTINUOUS
 10
95.879456
 20
334.749176
 11
95.879456
 21
334.749176
  0
LINE
  8
LC-004-005-----0
 62
     2
  6
CONTINUOUS
 10
95.879456
 20
334.749176
 11
95.879456
 21
333.295837
  0
LINE
  8
LC-004-005-----0
 62
     2
  6
CONTINUOUS
 10
95.879456
 20
333.295837
 11
95.303673
 21
330.595154
  0
LINE
  8
LC-004-005-----0
 62
     2
  6
CONTINUOUS
 10
95.303673
 20
330.595154
 11
94.754982
 21
329.143951
  0
CIRCLE
  8
LC-008-003-----0
 62
     2
  6
DASHED
 10
270.035248
 20
353.143951
 40
4.000000
  0
LINE
  8
LC-005-002-RND-0
 62
     2
  6
DASHDOT
 10
231.467499
 20
335.143951
 11
93.951790
 21
335.143951
  0
LINE
  8
LC-003-002-----0
 62
     1
  6
CONTINUOUS
 10
206.466370
 20
313.143951
 11
206.466370
 21
335.143951
  0
LINE
  8
LC-003-002-----0
 62
     1
  6
CONTINUOUS
 10
199.466370
 20
348.143951
 11
122.966370
 21
348.143951
  0
LINE
  8
LC-003-002-----0
 62
     1
  6
CONTINUOUS
 10
199.466370
 20
322.143951
 11
122.966370
 21
322.143951
  0
LINE
  8
LC-003-002-----0
 62
     1
  6
CONTINUOUS
 10
200.466370
 20
357.143951
 11
200.466370
 21
347.843933
  0
LINE
  8
LC-003-002-----0
 62
     1
  6
CONTINUOUS
 10
205.466370
 20
358.143951
 11
201.466370
 21
358.143951
  0
LINE
  8
LC-003-002-----0
 62
     1
  6
CONTINUOUS
 10
201.466370
 20
312.143951
 11
205.466370
 21
312.143951
  0
LINE
  8
LC-003-002-----0
 62
     1
  6
CONTINUOUS
 10
122.466370
 20
347.643951
 11
122.466370
 21
341.143951
  0
LINE
  8
LC-005-002-RND-0
 62
     2
  6
DASHDOT
 10
163.466370
 20
355.692230
 11
163.466370
 21
342.208160
  0
LINE
  8
LC-003-002-----0
 62
     1
  6
CONTINUOUS
 10
160.566376
 20
349.543945
 11
160.566376
 21
348.143951
  0
LINE
  8
LC-003-002-----0
 62
     1
  6
CONTINUOUS
 10
166.366364
 20
349.543945
 11
166.366364
 21
348.143951
  0
LINE
  8
LC-003-002-----0
 62
     1
  6
CONTINUOUS
 10
162.266373
 20
349.543945
 11
162.266373
 21
348.143951
  0
LINE
  8
LC-003-002-----0
 62
     1
  6
CONTINUOUS
 10
166.366364
 20
349.543945
 11
160.566376
 21
349.543945
  0
LINE
  8
LC-003-002-----0
 62
     1
  6
CONTINUOUS
 10
164.666367
 20
349.543945
 11
164.666367
 21
348.143951
  0
LINE
  8
LC-003-002-----0
 62
     1
  6
CONTINUOUS
 10
161.466370
 20
350.543945
 11
161.466370
 21
349.543945
  0
LINE
  8
LC-003-002-----0
 62
     1
  6
CONTINUOUS
 10
165.466370
 20
350.543945
 11
165.466370
 21
349.543945
  0
LINE
  8
LC-003-002-----0
 62
     1
  6
CONTINUOUS
 10
165.966370
 20
350.543945
 11
160.966370
 21
350.543945
  0
LINE
  8
LC-003-002-----0
 62
     1
  6
CONTINUOUS
 10
160.966370
 20
351.543945
 11
160.966370
 21
350.543945
  0
LINE
  8
LC-003-002-----0
 62
     1
  6
CONTINUOUS
 10
165.966370
 20
351.543945
 11
165.966370
 21
350.543945
  0
LINE
  8
LC-003-002-----0
 62
     1
  6
CONTINUOUS
 10
165.966370
 20
351.543945
 11
160.966370
 21
351.543945
  0
LINE
  8
LC-003-002-----0
 62
     1
  6
CONTINUOUS
 10
164.966370
 20
353.543945
 11
161.966370
 21
353.543945
  0
ARC
  8
LC-003-002-----0
 62
     1
  6
CONTINUOUS
 10
163.466370
 20
351.543945
 40
2.338464
 50
58.788702
 51
121.211296
  0
LINE
  8
LC-003-002-----0
 62
     1
  6
CONTINUOUS
 10
164.966370
 20
353.543945
 11
165.966370
 21
351.543945
  0
LINE
  8
LC-003-002-----0
 62
     1
  6
CONTINUOUS
 10
161.966370
 20
353.543945
 11
160.966370
 21
351.543945
  0
LINE
  8
LC-005-002-RND-0
 62
     2
  6
DASHDOT
 10
244.361511
 20
335.143951
 11
295.011383
 21
335.143951
  0
LINE
  8
LC-005-002-RND-0
 62
     2
  6
DASHDOT
 10
270.035248
 20
310.241852
 11
270.035248
 21
360.351166
  0
CIRCLE
  8
LC-003-002-----0
 62
     1
  6
CONTINUOUS
 10
270.035248
 20
335.143951
 40
6.000000
  0
LINE
  8
LC-008-003-----0
 62
     2
  6
DASHED
 10
206.466370
 20
329.143951
 11
122.466370
 21
329.143951
  0
CIRCLE
  8
LC-003-002-----0
 62
     1
  6
CONTINUOUS
 10
270.035248
 20
335.143951
 40
13.000000
  0
CIRCLE
  8
LC-008-003-----0
 62
     2
  6
DASHED
 10
270.035248
 20
317.143951
 40
4.000000
  0
LINE
  8
LC-005-002-RND-0
 62
     2
  6
DASHDOT
 10
208.292603
 20
353.143951
 11
199.118561
 21
353.143951
  0
LINE
  8
LC-005-002-RND-0
 62
     2
  6
DASHDOT
 10
208.292603
 20
317.143951
 11
199.118561
 21
317.143951
  0
LINE
  8
LC-008-003-----0
 62
     2
  6
DASHED
 10
201.966370
 20
321.143951
 11
201.966370
 21
313.143951
  0
LINE
  8
LC-008-003-----0
 62
     2
  6
DASHED
 10
206.466370
 20
321.143951
 11
201.966370
 21
321.143951
  0
LINE
  8
LC-008-003-----0
 62
     2
  6
DASHED
 10
206.466370
 20
313.143951
 11
201.966370
 21
313.143951
  0
LINE
  8
LC-008-003-----0
 62
     2
  6
DASHED
 10
201.966370
 20
319.543945
 11
200.466370
 21
319.543945
  0
LINE
  8
LC-008-003-----0
 62
     2
  6
DASHED
 10
201.966370
 20
314.743958
 11
200.466370
 21
314.743958
  0
LINE
  8
LC-003-002-----0
 62
     1
  6
CONTINUOUS
 10
122.466370
 20
335.143951
 11
122.466370
 21
322.643951
  0
LINE
  8
LC-003-002-----0
 62
     1
  6
CONTINUOUS
 10
199.466370
 20
348.143951
 11
199.466370
 21
347.843933
  0
LINE
  8
LC-003-002-----0
 62
     1
  6
CONTINUOUS
 10
199.466370
 20
335.143951
 11
199.466370
 21
322.143951
  0
LINE
  8
LC-003-002-----0
 62
     1
  6
CONTINUOUS
 10
200.466370
 20
335.143951
 11
200.466370
 21
313.143951
  0
CIRCLE
  8
LC-003-002-----0
 62
     1
  6
CONTINUOUS
 10
270.035248
 20
317.143951
 40
2.400000
  0
CIRCLE
  8
LC-003-002-----0
 62
     1
  6
CONTINUOUS
 10
270.035248
 20
353.143951
 40
2.400000
  0
CIRCLE
  8
LC-008-003-----0
 62
     2
  6
DASHED
 10
252.035248
 20
335.143951
 40
4.000000
  0
CIRCLE
  8
LC-003-002-----0
 62
     1
  6
CONTINUOUS
 10
252.035248
 20
335.143951
 40
2.400000
  0
LINE
  8
LC-003-002-----0
 62
     1
  6
CONTINUOUS
 10
206.466370
 20
341.143951
 11
229.616013
 21
341.143951
  0
CIRCLE
  8
LC-008-003-----0
 62
     2
  6
DASHED
 10
288.035248
 20
335.143951
 40
4.000000
  0
CIRCLE
  8
LC-003-002-----0
 62
     1
  6
CONTINUOUS
 10
288.035248
 20
335.143951
 40
2.400000
  0
LINE
  8
LC-003-002-----0
 62
     1
  6
CONTINUOUS
 10
206.466370
 20
341.143951
 11
206.466370
 21
357.143951
  0
LINE
  8
LC-003-002-----0
 62
     1
  6
CONTINUOUS
 10
200.466370
 20
347.843933
 11
199.466370
 21
347.843933
  0
LINE
  8
LC-003-002-----0
 62
     1
  6
CONTINUOUS
 10
200.466370
 20
322.443939
 11
199.466370
 21
322.443939
  0
ARC
  8
LC-003-002-----0
 62
     1
  6
CONTINUOUS
 10
122.966370
 20
322.643951
 40
0.500000
 50
180.000009
 51
269.999997
  0
ARC
  8
LC-003-002-----0
 62
     1
  6
CONTINUOUS
 10
122.966370
 20
347.643951
 40
0.500000
 50
90.000003
 51
180.000009
  0
LINE
  8
LC-003-002-----0
 62
     1
  6
CONTINUOUS
 10
200.466370
 20
357.143951
 11
201.466370
 21
358.143951
  0
LINE
  8
LC-003-002-----0
 62
     1
  6
CONTINUOUS
 10
200.466370
 20
313.143951
 11
201.466370
 21
312.143951
  0
LINE
  8
LC-003-002-----0
 62
     1
  6
CONTINUOUS
 10
201.466370
 20
335.143951
 11
201.466370
 21
312.143951
  0
LINE
  8
LC-003-002-----0
 62
     1
  6
CONTINUOUS
 10
206.466370
 20
357.143951
 11
205.466370
 21
358.143951
  0
LINE
  8
LC-003-002-----0
 62
     1
  6
CONTINUOUS
 10
205.466370
 20
312.143951
 11
206.466370
 21
313.143951
  0
LINE
  8
LC-003-002-----0
 62
     1
  6
CONTINUOUS
 10
205.466370
 20
335.143951
 11
205.466370
 21
312.143951
  0
LINE
  8
LC-003-002-----0
 62
     1
  6
CONTINUOUS
 10
277.459869
 20
346.104095
 11
280.995422
 21
342.568573
  0
LINE
  8
LC-003-002-----0
 62
     1
  6
CONTINUOUS
 10
280.217590
 20
345.326294
 11
279.227631
 21
344.336334
  0
LINE
  8
LC-003-002-----0
 62
     1
  6
CONTINUOUS
 10
281.985352
 20
343.558502
 11
278.449829
 21
347.094055
  0
LINE
  8
LC-003-002-----0
 62
     1
  6
CONTINUOUS
 10
279.510498
 20
347.447601
 11
278.803375
 21
346.740509
  0
LINE
  8
LC-003-002-----0
 62
     1
  6
CONTINUOUS
 10
282.338898
 20
344.619171
 11
281.631805
 21
343.912079
  0
LINE
  8
LC-003-002-----0
 62
     1
  6
CONTINUOUS
 10
282.692474
 20
344.265625
 11
279.156921
 21
347.801147
  0
LINE
  8
LC-003-002-----0
 62
     1
  6
CONTINUOUS
 10
279.864044
 20
348.508270
 11
279.156921
 21
347.801147
  0
LINE
  8
LC-003-002-----0
 62
     1
  6
CONTINUOUS
 10
283.399567
 20
344.972717
 11
282.692474
 21
344.265625
  0
LINE
  8
LC-003-002-----0
 62
     1
  6
CONTINUOUS
 10
283.399567
 20
344.972717
 11
279.864044
 21
348.508270
  0
LINE
  8
LC-003-002-----0
 62
     1
  6
CONTINUOUS
 10
284.106689
 20
347.094055
 11
281.985352
 21
349.215363
  0
ARC
  8
LC-003-002-----0
 62
     1
  6
CONTINUOUS
 10
281.631805
 20
346.740509
 40
2.338464
 50
13.788703
 51
76.211299
  0
LINE
  8
LC-003-002-----0
 62
     1
  6
CONTINUOUS
 10
284.106689
 20
347.094055
 11
283.399567
 21
344.972717
  0
LINE
  8
LC-003-002-----0
 62
     1
  6
CONTINUOUS
 10
281.985352
 20
349.215363
 11
279.864044
 21
348.508270
  0
LINE
  8
LC-003-002-----0
 62
     1
  6
CONTINUOUS
 10
280.995422
 20
342.568573
 11
281.985352
 21
343.558502
  0
LINE
  8
LC-003-002-----0
 62
     1
  6
CONTINUOUS
 10
277.459869
 20
346.104095
 11
278.449829
 21
347.094055
  0
LINE
  8
LC-003-002-----0
 62
     1
  6
CONTINUOUS
 10
206.466370
 20
329.143951
 11
230.097931
 21
329.143951
  0
LINE
  8
LC-003-002-----0
 62
     1
  6
CONTINUOUS
 10
122.466370
 20
341.143951
 11
96.200737
 21
341.143951
  0
LINE
  8
LC-003-002-----0
 62
     1
  6
CONTINUOUS
 10
122.466370
 20
329.143951
 11
94.754982
 21
329.143951
  0
CIRCLE
  8
LC-003-002-----0
 62
     1
  6
CONTINUOUS
 10
270.035248
 20
335.143951
 40
23.000000
  0
CIRCLE
  8
LC-005-002-RND-0
 62
     2
  6
DASHDOT
 10
270.035248
 20
335.143951
 40
18.000000
  0
CIRCLE
  8
LC-003-002-----0
 62
     1
  6
CONTINUOUS
 10
270.035248
 20
335.143951
 40
22.000000
  0
LINE
  8
LC-003-002-----0
 62
     1
  6
CONTINUOUS
 10
161.466370
 20
348.143951
 11
161.466370
 21
343.143951
  0
LINE
  8
LC-003-002-----0
 62
     1
  6
CONTINUOUS
 10
206.466370
 20
349.143951
 11
201.966370
 21
349.143951
  0
LINE
  8
LC-003-002-----0
 62
     1
  6
CONTINUOUS
 10
201.966370
 20
357.143951
 11
201.966370
 21
349.143951
  0
LINE
  8
LC-003-002-----0
 62
     1
  6
CONTINUOUS
 10
201.966370
 20
350.743958
 11
200.466370
 21
350.743958
  0
LINE
  8
LC-003-002-----0
 62
     1
  6
CONTINUOUS
 10
206.466370
 20
357.143951
 11
201.966370
 21
357.143951
  0
LINE
  8
LC-003-002-----0
 62
     1
  6
CONTINUOUS
 10
201.966370
 20
355.543945
 11
200.466370
 21
355.543945
  0
LINE
  8
LC-003-002-----0
 62
     1
  6
CONTINUOUS
 10
165.466370
 20
348.143951
 11
165.466370
 21
343.143951
  0
LINE
  8
LC-003-002-----0
 62
     1
  6
CONTINUOUS
 10
175.466370
 20
343.143951
 11
175.466370
 21
341.143951
  0
LINE
  8
LC-003-002-----0
 62
     1
  6
CONTINUOUS
 10
181.680511
 20
343.143951
 11
200.252228
 21
343.143951
  0
LINE
  8
LC-003-002-----0
 62
     1
  6
CONTINUOUS
 10
122.466370
 20
341.143951
 11
206.466370
 21
341.143951
  0
LINE
  8
LC-003-002-----0
 62
     1
  6
CONTINUOUS
 10
205.716370
 20
344.143951
 11
205.716370
 21
341.143951
  0
CIRCLE
  8
LC-003-002-----0
 62
     1
  6
CONTINUOUS
 10
190.966370
 20
342.143951
 40
1.000000
  0
CIRCLE
  8
LC-003-002-----0
 62
     1
  6
CONTINUOUS
 10
192.966370
 20
342.143951
 40
1.000000
  0
CIRCLE
  8
LC-003-002-----0
 62
     1
  6
CONTINUOUS
 10
194.966370
 20
342.143951
 40
1.000000
  0
CIRCLE
  8
LC-003-002-----0
 62
     1
  6
CONTINUOUS
 10
196.966370
 20
342.143951
 40
1.000000
  0
CIRCLE
  8
LC-003-002-----0
 62
     1
  6
CONTINUOUS
 10
198.966370
 20
342.143951
 40
1.000000
  0
CIRCLE
  8
LC-003-002-----0
 62
     1
  6
CONTINUOUS
 10
188.966370
 20
342.143951
 40
1.000000
  0
CIRCLE
  8
LC-003-002-----0
 62
     1
  6
CONTINUOUS
 10
186.966370
 20
342.143951
 40
1.000000
  0
CIRCLE
  8
LC-003-002-----0
 62
     1
  6
CONTINUOUS
 10
184.966370
 20
342.143951
 40
1.000000
  0
CIRCLE
  8
LC-003-002-----0
 62
     1
  6
CONTINUOUS
 10
182.966370
 20
342.143951
 40
1.000000
  0
CIRCLE
  8
LC-003-002-----0
 62
     1
  6
CONTINUOUS
 10
200.966370
 20
342.443939
 40
1.000000
  0
LINE
  8
LC-003-002-----0
 62
     1
  6
CONTINUOUS
 10
203.513535
 20
343.143951
 11
205.216370
 21
343.143951
  0
ARC
  8
LC-003-002-----0
 62
     1
  6
CONTINUOUS
 10
202.597031
 20
342.743958
 40
1.000000
 50
224.427001
 51
156.421823
  0
LINE
  8
LC-003-002-----0
 62
     1
  6
CONTINUOUS
 10
205.466370
 20
344.143951
 11
205.466370
 21
341.143951
  0
LINE
  8
LC-003-002-----0
 62
     1
  6
CONTINUOUS
 10
205.216370
 20
343.643951
 11
205.216370
 21
341.143951
  0
LINE
  8
LC-003-002-----0
 62
     1
  6
CONTINUOUS
 10
205.466370
 20
344.143951
 11
205.716370
 21
344.143951
  0
LINE
  8
LC-003-002-----0
 62
     1
  6
CONTINUOUS
 10
205.216370
 20
343.643951
 11
205.466370
 21
343.643951
  0
LINE
  8
LC-003-002-----0
 62
     1
  6
CONTINUOUS
 10
205.716370
 20
343.643951
 11
206.466370
 21
343.643951
  0
CIRCLE
  8
LC-003-002-----0
 62
     1
  6
CONTINUOUS
 10
180.966370
 20
342.443939
 40
1.000000
  0
ARC
  8
LC-003-002-----0
 62
     1
  6
CONTINUOUS
 10
179.335709
 20
342.743958
 40
1.000000
 50
23.578178
 51
315.572997
  0
LINE
  8
LC-003-002-----0
 62
     1
  6
CONTINUOUS
 10
178.419189
 20
343.143951
 11
150.513535
 21
343.143951
  0
LINE
  8
LC-003-002-----0
 62
     1
  6
CONTINUOUS
 10
147.252228
 20
343.143951
 11
128.680511
 21
343.143951
  0
LINE
  8
LC-003-002-----0
 62
     1
  6
CONTINUOUS
 10
123.216370
 20
344.143951
 11
123.216370
 21
341.143951
  0
CIRCLE
  8
LC-003-002-----0
 62
     1
  6
CONTINUOUS
 10
137.966370
 20
342.143951
 40
1.000000
  0
CIRCLE
  8
LC-003-002-----0
 62
     1
  6
CONTINUOUS
 10
135.966370
 20
342.143951
 40
1.000000
  0
CIRCLE
  8
LC-003-002-----0
 62
     1
  6
CONTINUOUS
 10
133.966370
 20
342.143951
 40
1.000000
  0
CIRCLE
  8
LC-003-002-----0
 62
     1
  6
CONTINUOUS
 10
131.966370
 20
342.143951
 40
1.000000
  0
CIRCLE
  8
LC-003-002-----0
 62
     1
  6
CONTINUOUS
 10
129.966370
 20
342.143951
 40
1.000000
  0
CIRCLE
  8
LC-003-002-----0
 62
     1
  6
CONTINUOUS
 10
139.966370
 20
342.143951
 40
1.000000
  0
CIRCLE
  8
LC-003-002-----0
 62
     1
  6
CONTINUOUS
 10
141.966370
 20
342.143951
 40
1.000000
  0
CIRCLE
  8
LC-003-002-----0
 62
     1
  6
CONTINUOUS
 10
143.966370
 20
342.143951
 40
1.000000
  0
CIRCLE
  8
LC-003-002-----0
 62
     1
  6
CONTINUOUS
 10
145.966370
 20
342.143951
 40
1.000000
  0
CIRCLE
  8
LC-003-002-----0
 62
     1
  6
CONTINUOUS
 10
127.966370
 20
342.443939
 40
1.000000
  0
LINE
  8
LC-003-002-----0
 62
     1
  6
CONTINUOUS
 10
125.419197
 20
343.143951
 11
123.716370
 21
343.143951
  0
ARC
  8
LC-003-002-----0
 62
     1
  6
CONTINUOUS
 10
126.335709
 20
342.743958
 40
1.000000
 50
23.578178
 51
315.572997
  0
LINE
  8
LC-003-002-----0
 62
     1
  6
CONTINUOUS
 10
123.466370
 20
344.143951
 11
123.466370
 21
341.143951
  0
LINE
  8
LC-003-002-----0
 62
     1
  6
CONTINUOUS
 10
123.716370
 20
343.643951
 11
123.716370
 21
341.143951
  0
LINE
  8
LC-003-002-----0
 62
     1
  6
CONTINUOUS
 10
123.466370
 20
344.143951
 11
123.216370
 21
344.143951
  0
LINE
  8
LC-003-002-----0
 62
     1
  6
CONTINUOUS
 10
123.716370
 20
343.643951
 11
123.466370
 21
343.643951
  0
LINE
  8
LC-003-002-----0
 62
     1
  6
CONTINUOUS
 10
123.216370
 20
343.643951
 11
122.466370
 21
343.643951
  0
CIRCLE
  8
LC-003-002-----0
 62
     1
  6
CONTINUOUS
 10
147.966370
 20
342.443939
 40
1.000000
  0
ARC
  8
LC-003-002-----0
 62
     1
  6
CONTINUOUS
 10
149.597031
 20
342.743958
 40
1.000000
 50
224.427001
 51
156.421823
  0
LINE
  8
LC-003-002-----0
 62
     1
  6
CONTINUOUS
 10
153.466370
 20
343.143951
 11
153.466370
 21
341.143951
  0
LINE
  8
LC-005-002-RND-0
 62
     2
  6
DASHDOT
 10
278.046265
 20
343.154968
 11
284.310425
 21
349.419098
  0
ENDSEC
  0
EOF
