  0
SECTION
  2
HEADER
  9
$LIMMIN
 10
106.874352
 20
78.110176
  9
$LIMMAX
 10
261.878357
 20
112.344887
  9
$EXTMIN
 10
106.874352
 20
78.110176
  9
$EXTMAX
 10
261.878357
 20
112.344887
  0
ENDSEC
  0
SECTION
  2
TABLES
  0
TABLE
  2
LTYPE
 70
     3
  0
LTYPE
  2
CONTINUOUS
 70
    64
  3
Ausgezogene Linie
 72
    65
 73
     0
 40
0.0
  0
LTYPE
  2
DASHED
 70
    64
  3
__ __ __ __ __ __ __ __ __ __ __ __ __ __ __
 72
    65
 73
     2
 40
0.75
 49
0.5
 49
-0.25
  0
LTYPE
  2
DASHDOT
 70
    64
  3
__ . __ . __ . __ . __ . __ . __ . __ . __ . __
 72
    65
 73
     4
 40
1.0
 49
0.5
 49
-0.25
 49
0.0
 49
-0.25
  0
ENDTAB
  0
TABLE
  2
LAYER
 70
     4
  0
LAYER
  2
LC-003-002-----0
 70
    64
 62
     7
  6
CONTINUOUS
  0
LAYER
  2
LC-004-006-----0
 70
    64
 62
     7
  6
CONTINUOUS
  0
LAYER
  2
LC-008-003-----0
 70
    64
 62
     7
  6
CONTINUOUS
  0
LAYER
  2
LC-006-012-----0
 70
    64
 62
     7
  6
CONTINUOUS
  0
ENDTAB
  0
TABLE
  2
STYLE
 70
     1
  0
STYLE
  2
TXT8
 70
    64
 40
0.0
 41
1.0
 50
0.0
 71
     0
 42
3.500000
  3
TXT8
  4

  0
ENDTAB
  0
ENDSEC
  0
SECTION
  2
BLOCKS
  0
ENDSEC
  0
SECTION
  2
ENTITIES
  0
LINE
  8
LC-004-006-----0
 62
     2
  6
DASHDOT
 10
106.874352
 20
93.854004
 11
192.828140
 21
93.854004
  0
LINE
  8
LC-003-002-----0
 62
     1
  6
CONTINUOUS
 10
133.076797
 20
106.854004
 11
137.776794
 21
106.854004
  0
LINE
  8
LC-003-002-----0
 62
     1
  6
CONTINUOUS
 10
133.076797
 20
80.854004
 11
137.776794
 21
80.854004
  0
LINE
  8
LC-003-002-----0
 62
     1
  6
CONTINUOUS
 10
132.076797
 20
81.854004
 11
132.076797
 21
105.854004
  0
LINE
  8
LC-003-002-----0
 62
     1
  6
CONTINUOUS
 10
168.076797
 20
81.854004
 11
168.076797
 21
105.854004
  0
LINE
  8
LC-003-002-----0
 62
     1
  6
CONTINUOUS
 10
110.931686
 20
101.854004
 11
132.076797
 21
101.854004
  0
LINE
  8
LC-003-002-----0
 62
     1
  6
CONTINUOUS
 10
110.220451
 20
85.854004
 11
132.076797
 21
85.854004
  0
LINE
  8
LC-006-012-----0
 62
     2
  6
CONTINUOUS
 10
110.220451
 20
85.854004
 11
111.206474
 21
89.944305
  0
LINE
  8
LC-006-012-----0
 62
     2
  6
CONTINUOUS
 10
111.206474
 20
89.944305
 11
110.095215
 21
98.715523
  0
LINE
  8
LC-006-012-----0
 62
     2
  6
CONTINUOUS
 10
110.095215
 20
98.715523
 11
110.931686
 21
101.854004
  0
LINE
  8
LC-006-012-----0
 62
     2
  6
CONTINUOUS
 10
188.264404
 20
85.854004
 11
188.813828
 21
90.523087
  0
LINE
  8
LC-006-012-----0
 62
     2
  6
CONTINUOUS
 10
188.813828
 20
90.523087
 11
186.910034
 21
98.798203
  0
LINE
  8
LC-006-012-----0
 62
     2
  6
CONTINUOUS
 10
186.910034
 20
98.798203
 11
187.393936
 21
101.854004
  0
LINE
  8
LC-008-003-----0
 62
     2
  6
DASHED
 10
132.076797
 20
101.854004
 11
168.076797
 21
101.854004
  0
LINE
  8
LC-003-002-----0
 62
     1
  6
CONTINUOUS
 10
168.076797
 20
101.854004
 11
187.393936
 21
101.854004
  0
LINE
  8
LC-008-003-----0
 62
     2
  6
DASHED
 10
132.076797
 20
85.854004
 11
168.076797
 21
85.854004
  0
LINE
  8
LC-003-002-----0
 62
     1
  6
CONTINUOUS
 10
168.076797
 20
85.854004
 11
188.264404
 21
85.854004
  0
LINE
  8
LC-003-002-----0
 62
     1
  6
CONTINUOUS
 10
139.076797
 20
106.854004
 11
161.076797
 21
106.854004
  0
LINE
  8
LC-003-002-----0
 62
     1
  6
CONTINUOUS
 10
161.076797
 20
80.854004
 11
161.076797
 21
106.854004
  0
LINE
  8
LC-003-002-----0
 62
     1
  6
CONTINUOUS
 10
139.076797
 20
80.854004
 11
139.076797
 21
106.854004
  0
LINE
  8
LC-003-002-----0
 62
     1
  6
CONTINUOUS
 10
162.376801
 20
80.854004
 11
162.376801
 21
106.854004
  0
LINE
  8
LC-003-002-----0
 62
     1
  6
CONTINUOUS
 10
137.776794
 20
80.854004
 11
137.776794
 21
106.854004
  0
LINE
  8
LC-003-002-----0
 62
     1
  6
CONTINUOUS
 10
162.376801
 20
106.854004
 11
167.076797
 21
106.854004
  0
LINE
  8
LC-003-002-----0
 62
     1
  6
CONTINUOUS
 10
162.376801
 20
80.854004
 11
167.076797
 21
80.854004
  0
LINE
  8
LC-003-002-----0
 62
     1
  6
CONTINUOUS
 10
139.076797
 20
80.854004
 11
161.076797
 21
80.854004
  0
LINE
  8
LC-003-002-----0
 62
     1
  6
CONTINUOUS
 10
137.776794
 20
106.104004
 11
139.076797
 21
106.104004
  0
LINE
  8
LC-003-002-----0
 62
     1
  6
CONTINUOUS
 10
161.076797
 20
106.104004
 11
162.376801
 21
106.104004
  0
LINE
  8
LC-003-002-----0
 62
     1
  6
CONTINUOUS
 10
161.076797
 20
81.604004
 11
162.376801
 21
81.604004
  0
LINE
  8
LC-003-002-----0
 62
     1
  6
CONTINUOUS
 10
137.776794
 20
81.604004
 11
139.076797
 21
81.604004
  0
ARC
  8
LC-003-002-----0
 62
     1
  6
CONTINUOUS
 10
133.076797
 20
105.854004
 40
1.000000
 50
90.000003
 51
180.000009
  0
ARC
  8
LC-003-002-----0
 62
     1
  6
CONTINUOUS
 10
133.076797
 20
81.854004
 40
1.000000
 50
180.000009
 51
269.999997
  0
ARC
  8
LC-003-002-----0
 62
     1
  6
CONTINUOUS
 10
167.076797
 20
81.854004
 40
1.000000
 50
269.999997
 51
0.000000
  0
ARC
  8
LC-003-002-----0
 62
     1
  6
CONTINUOUS
 10
167.076797
 20
105.854004
 40
1.000000
 50
0.000000
 51
90.000003
  0
LINE
  8
LC-004-006-----0
 62
     2
  6
DASHDOT
 10
224.216644
 20
93.854004
 11
261.878357
 21
93.854004
  0
LINE
  8
LC-004-006-----0
 62
     2
  6
DASHDOT
 10
242.405258
 20
112.344887
 11
242.405258
 21
78.110176
  0
CIRCLE
  8
LC-003-002-----0
 62
     1
  6
CONTINUOUS
 10
242.405258
 20
93.854004
 40
13.000000
  0
CIRCLE
  8
LC-003-002-----0
 62
     1
  6
CONTINUOUS
 10
242.405258
 20
93.854004
 40
8.000000
  0
CIRCLE
  8
LC-003-002-----0
 62
     1
  6
CONTINUOUS
 10
242.405258
 20
93.854004
 40
11.000000
  0
ENDSEC
  0
EOF
