  0
SECTION
  2
HEADER
  9
$LIMMIN
 10
107.677399
 20
-48.333485
  9
$LIMMAX
 10
285.091766
 20
-8.175314
  9
$EXTMIN
 10
107.677399
 20
-48.333485
  9
$EXTMAX
 10
285.091766
 20
-8.175314
  0
ENDSEC
  0
SECTION
  2
TABLES
  0
TABLE
  2
LTYPE
 70
     3
  0
LTYPE
  2
CONTINUOUS
 70
    64
  3
Ausgezogene Linie
 72
    65
 73
     0
 40
0.0
  0
LTYPE
  2
DASHED
 70
    64
  3
__ __ __ __ __ __ __ __ __ __ __ __ __ __ __
 72
    65
 73
     2
 40
0.75
 49
0.5
 49
-0.25
  0
LTYPE
  2
DASHDOT
 70
    64
  3
__ . __ . __ . __ . __ . __ . __ . __ . __ . __
 72
    65
 73
     4
 40
1.0
 49
0.5
 49
-0.25
 49
0.0
 49
-0.25
  0
ENDTAB
  0
TABLE
  2
LAYER
 70
     4
  0
LAYER
  2
LC-003-002-----0
 70
    64
 62
     7
  6
CONTINUOUS
  0
LAYER
  2
LC-004-006-----0
 70
    64
 62
     7
  6
CONTINUOUS
  0
LAYER
  2
LC-008-003-----0
 70
    64
 62
     7
  6
CONTINUOUS
  0
LAYER
  2
LC-006-012-----0
 70
    64
 62
     7
  6
CONTINUOUS
  0
ENDTAB
  0
TABLE
  2
STYLE
 70
     1
  0
STYLE
  2
TXT8
 70
    64
 40
0.0
 41
1.0
 50
0.0
 71
     0
 42
3.500000
  3
TXT8
  4

  0
ENDTAB
  0
ENDSEC
  0
SECTION
  2
BLOCKS
  0
ENDSEC
  0
SECTION
  2
ENTITIES
  0
LINE
  8
LC-004-006-----0
 62
     2
  6
DASHDOT
 10
107.677399
 20
-28.388582
 11
204.448151
 21
-28.388582
  0
LINE
  8
LC-003-002-----0
 62
     1
  6
CONTINUOUS
 10
133.076797
 20
-12.388582
 11
138.976807
 21
-12.388582
  0
LINE
  8
LC-003-002-----0
 62
     1
  6
CONTINUOUS
 10
133.076797
 20
-44.388580
 11
138.976807
 21
-44.388580
  0
LINE
  8
LC-003-002-----0
 62
     1
  6
CONTINUOUS
 10
132.076797
 20
-43.388580
 11
132.076797
 21
-13.388584
  0
LINE
  8
LC-003-002-----0
 62
     1
  6
CONTINUOUS
 10
177.076797
 20
-43.388580
 11
177.076797
 21
-13.388584
  0
LINE
  8
LC-003-002-----0
 62
     1
  6
CONTINUOUS
 10
110.192566
 20
-18.388582
 11
132.076797
 21
-18.388582
  0
LINE
  8
LC-003-002-----0
 62
     1
  6
CONTINUOUS
 10
109.175156
 20
-38.388580
 11
132.076797
 21
-38.388580
  0
LINE
  8
LC-008-003-----0
 62
     2
  6
DASHED
 10
132.076797
 20
-18.388582
 11
177.076797
 21
-18.388582
  0
LINE
  8
LC-003-002-----0
 62
     1
  6
CONTINUOUS
 10
177.076797
 20
-18.388582
 11
199.029709
 21
-18.388582
  0
LINE
  8
LC-008-003-----0
 62
     2
  6
DASHED
 10
132.076797
 20
-38.388580
 11
177.076797
 21
-38.388580
  0
LINE
  8
LC-003-002-----0
 62
     1
  6
CONTINUOUS
 10
177.076797
 20
-38.388580
 11
200.366302
 21
-38.388580
  0
LINE
  8
LC-006-012-----0
 62
     2
  6
CONTINUOUS
 10
109.175156
 20
-38.388580
 11
110.658127
 21
-32.700665
  0
LINE
  8
LC-006-012-----0
 62
     2
  6
CONTINUOUS
 10
110.658127
 20
-32.700665
 11
108.949020
 21
-21.783295
  0
LINE
  8
LC-006-012-----0
 62
     2
  6
CONTINUOUS
 10
108.949020
 20
-21.783297
 11
110.192566
 21
-18.388582
  0
LINE
  8
LC-006-012-----0
 62
     2
  6
CONTINUOUS
 10
200.366302
 20
-38.388580
 11
199.006882
 21
-31.975845
  0
LINE
  8
LC-006-012-----0
 62
     2
  6
CONTINUOUS
 10
199.006882
 20
-31.975843
 11
199.974121
 21
-21.873430
  0
LINE
  8
LC-006-012-----0
 62
     2
  6
CONTINUOUS
 10
199.974121
 20
-21.873430
 11
199.029709
 21
-18.388582
  0
LINE
  8
LC-003-002-----0
 62
     1
  6
CONTINUOUS
 10
168.576797
 20
-44.388580
 11
168.576797
 21
-12.388584
  0
LINE
  8
LC-003-002-----0
 62
     1
  6
CONTINUOUS
 10
140.576797
 20
-44.388580
 11
140.576797
 21
-12.388584
  0
LINE
  8
LC-003-002-----0
 62
     1
  6
CONTINUOUS
 10
170.176804
 20
-44.388580
 11
170.176804
 21
-12.388584
  0
LINE
  8
LC-003-002-----0
 62
     1
  6
CONTINUOUS
 10
138.976807
 20
-44.388580
 11
138.976807
 21
-12.388584
  0
LINE
  8
LC-003-002-----0
 62
     1
  6
CONTINUOUS
 10
140.576797
 20
-12.388582
 11
168.576797
 21
-12.388582
  0
LINE
  8
LC-003-002-----0
 62
     1
  6
CONTINUOUS
 10
140.576797
 20
-44.388580
 11
168.576797
 21
-44.388580
  0
LINE
  8
LC-003-002-----0
 62
     1
  6
CONTINUOUS
 10
170.176804
 20
-44.388580
 11
176.076797
 21
-44.388580
  0
LINE
  8
LC-003-002-----0
 62
     1
  6
CONTINUOUS
 10
170.176804
 20
-12.388582
 11
176.076797
 21
-12.388582
  0
LINE
  8
LC-003-002-----0
 62
     1
  6
CONTINUOUS
 10
138.976807
 20
-13.238582
 11
140.576797
 21
-13.238582
  0
LINE
  8
LC-003-002-----0
 62
     1
  6
CONTINUOUS
 10
168.576797
 20
-13.238582
 11
170.176804
 21
-13.238582
  0
LINE
  8
LC-003-002-----0
 62
     1
  6
CONTINUOUS
 10
168.576797
 20
-43.538582
 11
170.176804
 21
-43.538582
  0
LINE
  8
LC-003-002-----0
 62
     1
  6
CONTINUOUS
 10
138.976807
 20
-43.538582
 11
140.576797
 21
-43.538582
  0
ARC
  8
LC-003-002-----0
 62
     1
  6
CONTINUOUS
 10
133.076797
 20
-13.388582
 40
1.000000
 50
90.000003
 51
180.000009
  0
ARC
  8
LC-003-002-----0
 62
     1
  6
CONTINUOUS
 10
133.076797
 20
-43.388580
 40
1.000000
 50
180.000009
 51
269.999997
  0
ARC
  8
LC-003-002-----0
 62
     1
  6
CONTINUOUS
 10
176.076797
 20
-43.388580
 40
1.000000
 50
269.999997
 51
0.000000
  0
ARC
  8
LC-003-002-----0
 62
     1
  6
CONTINUOUS
 10
176.076797
 20
-13.388582
 40
1.000000
 50
0.000000
 51
90.000003
  0
LINE
  8
LC-004-006-----0
 62
     2
  6
DASHDOT
 10
245.106476
 20
-28.388582
 11
285.091766
 21
-28.388582
  0
LINE
  8
LC-004-006-----0
 62
     2
  6
DASHDOT
 10
265.212494
 20
-8.175314
 11
265.212494
 21
-48.333485
  0
CIRCLE
  8
LC-003-002-----0
 62
     1
  6
CONTINUOUS
 10
265.212494
 20
-28.388582
 40
10.000000
  0
CIRCLE
  8
LC-003-002-----0
 62
     1
  6
CONTINUOUS
 10
265.212494
 20
-28.388582
 40
16.000000
  0
CIRCLE
  8
LC-003-002-----0
 62
     1
  6
CONTINUOUS
 10
265.212494
 20
-28.388582
 40
14.000000
  0
ENDSEC
  0
EOF
