  0
SECTION
  2
HEADER
  9
$LIMMIN
 10
470.455719
 20
447.112274
  9
$LIMMAX
 10
681.756104
 20
496.329193
  9
$EXTMIN
 10
470.455719
 20
447.112274
  9
$EXTMAX
 10
681.756104
 20
496.329193
  0
ENDSEC
  0
SECTION
  2
TABLES
  0
TABLE
  2
LTYPE
 70
     3
  0
LTYPE
  2
CONTINUOUS
 70
    64
  3
Ausgezogene Linie
 72
    65
 73
     0
 40
0.0
  0
LTYPE
  2
DASHED
 70
    64
  3
__ __ __ __ __ __ __ __ __ __ __ __ __ __ __
 72
    65
 73
     2
 40
0.75
 49
0.5
 49
-0.25
  0
LTYPE
  2
DASHDOT
 70
    64
  3
__ . __ . __ . __ . __ . __ . __ . __ . __ . __
 72
    65
 73
     4
 40
1.0
 49
0.5
 49
-0.25
 49
0.0
 49
-0.25
  0
ENDTAB
  0
TABLE
  2
LAYER
 70
     4
  0
LAYER
  2
LC-003-002-----0
 70
    64
 62
     7
  6
CONTINUOUS
  0
LAYER
  2
LC-004-006-----0
 70
    64
 62
     7
  6
CONTINUOUS
  0
LAYER
  2
LC-008-003-----0
 70
    64
 62
     7
  6
CONTINUOUS
  0
LAYER
  2
LC-006-012-----0
 70
    64
 62
     7
  6
CONTINUOUS
  0
ENDTAB
  0
TABLE
  2
STYLE
 70
     1
  0
STYLE
  2
TXT8
 70
    64
 40
0.0
 41
1.0
 50
0.0
 71
     0
 42
3.500000
  3
TXT8
  4

  0
ENDTAB
  0
ENDSEC
  0
SECTION
  2
BLOCKS
  0
ENDSEC
  0
SECTION
  2
ENTITIES
  0
LINE
  8
LC-004-006-----0
 62
     2
  6
DASHDOT
 10
470.455719
 20
470.404083
 11
586.394897
 21
470.404083
  0
LINE
  8
LC-003-002-----0
 62
     1
  6
CONTINUOUS
 10
502.470520
 20
490.404083
 11
508.370514
 21
490.404083
  0
LINE
  8
LC-003-002-----0
 62
     1
  6
CONTINUOUS
 10
502.470520
 20
450.404083
 11
508.370514
 21
450.404083
  0
LINE
  8
LC-003-002-----0
 62
     1
  6
CONTINUOUS
 10
501.220520
 20
451.654083
 11
501.220520
 21
489.154083
  0
LINE
  8
LC-003-002-----0
 62
     1
  6
CONTINUOUS
 10
559.220520
 20
451.654083
 11
559.220520
 21
489.154083
  0
LINE
  8
LC-003-002-----0
 62
     1
  6
CONTINUOUS
 10
476.226227
 20
482.904083
 11
501.220520
 21
482.904083
  0
LINE
  8
LC-003-002-----0
 62
     1
  6
CONTINUOUS
 10
475.305939
 20
457.904083
 11
501.220520
 21
457.904083
  0
LINE
  8
LC-006-012-----0
 62
     2
  6
CONTINUOUS
 10
475.305939
 20
457.904083
 11
476.826324
 21
463.640594
  0
LINE
  8
LC-006-012-----0
 62
     2
  6
CONTINUOUS
 10
476.826324
 20
463.640594
 11
475.240509
 21
477.035400
  0
LINE
  8
LC-006-012-----0
 62
     2
  6
CONTINUOUS
 10
475.240509
 20
477.035400
 11
476.226227
 21
482.904083
  0
LINE
  8
LC-006-012-----0
 62
     2
  6
CONTINUOUS
 10
579.894897
 20
457.904083
 11
580.899231
 21
465.083954
  0
LINE
  8
LC-006-012-----0
 62
     2
  6
CONTINUOUS
 10
580.899231
 20
465.083954
 11
578.424805
 21
476.379303
  0
LINE
  8
LC-006-012-----0
 62
     2
  6
CONTINUOUS
 10
578.424805
 20
476.379303
 11
579.023315
 21
482.904083
  0
LINE
  8
LC-008-003-----0
 62
     2
  6
DASHED
 10
501.220520
 20
482.904083
 11
559.220520
 21
482.904083
  0
LINE
  8
LC-003-002-----0
 62
     1
  6
CONTINUOUS
 10
559.220520
 20
482.904083
 11
579.023315
 21
482.904083
  0
LINE
  8
LC-008-003-----0
 62
     2
  6
DASHED
 10
501.220520
 20
457.904083
 11
559.220520
 21
457.904083
  0
LINE
  8
LC-003-002-----0
 62
     1
  6
CONTINUOUS
 10
559.220520
 20
457.904083
 11
579.894897
 21
457.904083
  0
LINE
  8
LC-003-002-----0
 62
     1
  6
CONTINUOUS
 10
550.220520
 20
450.404083
 11
550.220520
 21
490.404083
  0
LINE
  8
LC-003-002-----0
 62
     1
  6
CONTINUOUS
 10
510.220520
 20
450.404083
 11
510.220520
 21
490.404083
  0
LINE
  8
LC-003-002-----0
 62
     1
  6
CONTINUOUS
 10
552.070496
 20
450.404083
 11
552.070496
 21
490.404083
  0
LINE
  8
LC-003-002-----0
 62
     1
  6
CONTINUOUS
 10
508.370514
 20
450.404083
 11
508.370514
 21
490.404083
  0
LINE
  8
LC-003-002-----0
 62
     1
  6
CONTINUOUS
 10
510.220520
 20
490.404083
 11
550.220520
 21
490.404083
  0
LINE
  8
LC-003-002-----0
 62
     1
  6
CONTINUOUS
 10
510.220520
 20
450.404083
 11
550.220520
 21
450.404083
  0
LINE
  8
LC-003-002-----0
 62
     1
  6
CONTINUOUS
 10
552.070496
 20
450.404083
 11
557.970520
 21
450.404083
  0
LINE
  8
LC-003-002-----0
 62
     1
  6
CONTINUOUS
 10
552.070496
 20
490.404083
 11
557.970520
 21
490.404083
  0
LINE
  8
LC-003-002-----0
 62
     1
  6
CONTINUOUS
 10
508.370514
 20
489.154083
 11
510.220520
 21
489.154083
  0
LINE
  8
LC-003-002-----0
 62
     1
  6
CONTINUOUS
 10
550.220520
 20
489.154083
 11
552.070496
 21
489.154083
  0
LINE
  8
LC-003-002-----0
 62
     1
  6
CONTINUOUS
 10
550.220520
 20
451.654083
 11
552.070496
 21
451.654083
  0
LINE
  8
LC-003-002-----0
 62
     1
  6
CONTINUOUS
 10
508.370514
 20
451.654083
 11
510.220520
 21
451.654083
  0
ARC
  8
LC-003-002-----0
 62
     1
  6
CONTINUOUS
 10
502.470520
 20
489.154083
 40
1.250000
 50
90.000003
 51
180.000009
  0
ARC
  8
LC-003-002-----0
 62
     1
  6
CONTINUOUS
 10
502.470520
 20
451.654083
 40
1.250000
 50
180.000009
 51
269.999997
  0
ARC
  8
LC-003-002-----0
 62
     1
  6
CONTINUOUS
 10
557.970520
 20
451.654083
 40
1.250000
 50
269.999997
 51
0.000000
  0
ARC
  8
LC-003-002-----0
 62
     1
  6
CONTINUOUS
 10
557.970520
 20
489.154083
 40
1.250000
 50
0.000000
 51
90.000003
  0
LINE
  8
LC-004-006-----0
 62
     2
  6
DASHDOT
 10
631.473999
 20
470.404083
 11
681.756104
 21
470.404083
  0
LINE
  8
LC-004-006-----0
 62
     2
  6
DASHDOT
 10
656.303467
 20
496.329193
 11
656.303467
 21
447.112274
  0
CIRCLE
  8
LC-003-002-----0
 62
     1
  6
CONTINUOUS
 10
656.303467
 20
470.404083
 40
12.500000
  0
CIRCLE
  8
LC-003-002-----0
 62
     1
  6
CONTINUOUS
 10
656.303467
 20
470.404083
 40
20.000000
  0
CIRCLE
  8
LC-003-002-----0
 62
     1
  6
CONTINUOUS
 10
656.303467
 20
470.404083
 40
17.000000
  0
ENDSEC
  0
EOF
