  0
SECTION
  2
HEADER
  9
$LIMMIN
 10
469.017029
 20
308.607239
  9
$LIMMAX
 10
714.148193
 20
365.435089
  9
$EXTMIN
 10
469.017029
 20
308.607239
  9
$EXTMAX
 10
714.148193
 20
365.435089
  0
ENDSEC
  0
SECTION
  2
TABLES
  0
TABLE
  2
LTYPE
 70
     3
  0
LTYPE
  2
CONTINUOUS
 70
    64
  3
Ausgezogene Linie
 72
    65
 73
     0
 40
0.0
  0
LTYPE
  2
DASHED
 70
    64
  3
__ __ __ __ __ __ __ __ __ __ __ __ __ __ __
 72
    65
 73
     2
 40
0.75
 49
0.5
 49
-0.25
  0
LTYPE
  2
DASHDOT
 70
    64
  3
__ . __ . __ . __ . __ . __ . __ . __ . __ . __
 72
    65
 73
     4
 40
1.0
 49
0.5
 49
-0.25
 49
0.0
 49
-0.25
  0
ENDTAB
  0
TABLE
  2
LAYER
 70
     4
  0
LAYER
  2
LC-003-002-----0
 70
    64
 62
     7
  6
CONTINUOUS
  0
LAYER
  2
LC-004-006-----0
 70
    64
 62
     7
  6
CONTINUOUS
  0
LAYER
  2
LC-008-003-----0
 70
    64
 62
     7
  6
CONTINUOUS
  0
LAYER
  2
LC-006-012-----0
 70
    64
 62
     7
  6
CONTINUOUS
  0
ENDTAB
  0
TABLE
  2
STYLE
 70
     1
  0
STYLE
  2
TXT8
 70
    64
 40
0.0
 41
1.0
 50
0.0
 71
     0
 42
3.500000
  3
TXT8
  4

  0
ENDTAB
  0
ENDSEC
  0
SECTION
  2
BLOCKS
  0
ENDSEC
  0
SECTION
  2
ENTITIES
  0
LINE
  8
LC-004-006-----0
 62
     2
  6
DASHDOT
 10
469.017029
 20
334.976593
 11
600.391663
 21
334.976593
  0
LINE
  8
LC-003-002-----0
 62
     1
  6
CONTINUOUS
 10
502.470520
 20
358.476593
 11
509.370514
 21
358.476593
  0
LINE
  8
LC-003-002-----0
 62
     1
  6
CONTINUOUS
 10
502.470520
 20
311.476593
 11
509.370514
 21
311.476593
  0
LINE
  8
LC-003-002-----0
 62
     1
  6
CONTINUOUS
 10
501.220520
 20
357.226593
 11
501.220520
 21
312.726593
  0
LINE
  8
LC-003-002-----0
 62
     1
  6
CONTINUOUS
 10
569.220520
 20
357.226593
 11
569.220520
 21
312.726593
  0
LINE
  8
LC-003-002-----0
 62
     1
  6
CONTINUOUS
 10
475.605804
 20
349.976593
 11
501.220520
 21
349.976593
  0
LINE
  8
LC-003-002-----0
 62
     1
  6
CONTINUOUS
 10
474.314087
 20
319.976593
 11
501.220520
 21
319.976593
  0
LINE
  8
LC-006-012-----0
 62
     2
  6
CONTINUOUS
 10
474.314087
 20
319.976593
 11
475.712585
 21
325.013550
  0
LINE
  8
LC-006-012-----0
 62
     2
  6
CONTINUOUS
 10
475.712585
 20
325.013550
 11
473.278107
 21
341.582184
  0
LINE
  8
LC-006-012-----0
 62
     2
  6
CONTINUOUS
 10
473.278107
 20
341.582184
 11
475.605804
 21
349.976593
  0
LINE
  8
LC-006-012-----0
 62
     2
  6
CONTINUOUS
 10
595.445435
 20
319.976593
 11
596.638489
 21
327.517090
  0
LINE
  8
LC-006-012-----0
 62
     2
  6
CONTINUOUS
 10
596.638489
 20
327.517090
 11
593.812744
 21
340.747650
  0
LINE
  8
LC-006-012-----0
 62
     2
  6
CONTINUOUS
 10
593.812744
 20
340.747650
 11
594.755432
 21
349.976593
  0
LINE
  8
LC-008-003-----0
 62
     2
  6
DASHED
 10
501.220520
 20
349.976593
 11
569.220520
 21
349.976593
  0
LINE
  8
LC-003-002-----0
 62
     1
  6
CONTINUOUS
 10
569.220520
 20
349.976593
 11
594.755432
 21
349.976593
  0
LINE
  8
LC-008-003-----0
 62
     2
  6
DASHED
 10
501.220520
 20
319.976593
 11
569.220520
 21
319.976593
  0
LINE
  8
LC-003-002-----0
 62
     1
  6
CONTINUOUS
 10
569.220520
 20
319.976593
 11
595.445435
 21
319.976593
  0
LINE
  8
LC-003-002-----0
 62
     1
  6
CONTINUOUS
 10
509.370514
 20
312.976593
 11
511.220520
 21
312.976593
  0
LINE
  8
LC-003-002-----0
 62
     1
  6
CONTINUOUS
 10
559.220520
 20
358.476593
 11
559.220520
 21
311.476593
  0
LINE
  8
LC-003-002-----0
 62
     1
  6
CONTINUOUS
 10
511.220520
 20
358.476593
 11
511.220520
 21
311.476593
  0
LINE
  8
LC-003-002-----0
 62
     1
  6
CONTINUOUS
 10
561.070496
 20
358.476593
 11
561.070496
 21
311.476593
  0
LINE
  8
LC-003-002-----0
 62
     1
  6
CONTINUOUS
 10
509.370514
 20
358.476593
 11
509.370514
 21
311.476593
  0
LINE
  8
LC-003-002-----0
 62
     1
  6
CONTINUOUS
 10
511.220520
 20
311.476593
 11
559.220520
 21
311.476593
  0
LINE
  8
LC-003-002-----0
 62
     1
  6
CONTINUOUS
 10
561.070496
 20
311.476593
 11
567.970520
 21
311.476593
  0
LINE
  8
LC-003-002-----0
 62
     1
  6
CONTINUOUS
 10
561.070496
 20
358.476593
 11
567.970520
 21
358.476593
  0
LINE
  8
LC-003-002-----0
 62
     1
  6
CONTINUOUS
 10
511.220520
 20
358.476593
 11
559.220520
 21
358.476593
  0
LINE
  8
LC-003-002-----0
 62
     1
  6
CONTINUOUS
 10
509.370514
 20
356.976593
 11
511.220520
 21
356.976593
  0
LINE
  8
LC-003-002-----0
 62
     1
  6
CONTINUOUS
 10
559.220520
 20
356.976593
 11
561.070496
 21
356.976593
  0
LINE
  8
LC-003-002-----0
 62
     1
  6
CONTINUOUS
 10
559.220520
 20
312.976593
 11
561.070496
 21
312.976593
  0
ARC
  8
LC-003-002-----0
 62
     1
  6
CONTINUOUS
 10
502.470520
 20
357.226593
 40
1.250000
 50
90.000003
 51
180.000009
  0
ARC
  8
LC-003-002-----0
 62
     1
  6
CONTINUOUS
 10
502.470520
 20
312.726593
 40
1.250000
 50
180.000009
 51
269.999997
  0
ARC
  8
LC-003-002-----0
 62
     1
  6
CONTINUOUS
 10
567.970520
 20
312.726593
 40
1.250000
 50
269.999997
 51
0.000000
  0
ARC
  8
LC-003-002-----0
 62
     1
  6
CONTINUOUS
 10
567.970520
 20
357.226593
 40
1.250000
 50
0.000000
 51
90.000003
  0
LINE
  8
LC-004-006-----0
 62
     2
  6
DASHDOT
 10
654.594788
 20
334.976593
 11
714.148193
 21
334.976593
  0
LINE
  8
LC-004-006-----0
 62
     2
  6
DASHDOT
 10
684.258972
 20
365.435089
 11
684.258972
 21
308.607239
  0
CIRCLE
  8
LC-003-002-----0
 62
     1
  6
CONTINUOUS
 10
684.258972
 20
334.976593
 40
15.000000
  0
CIRCLE
  8
LC-003-002-----0
 62
     1
  6
CONTINUOUS
 10
684.258972
 20
334.976593
 40
23.500000
  0
CIRCLE
  8
LC-003-002-----0
 62
     1
  6
CONTINUOUS
 10
684.258972
 20
334.976593
 40
20.000000
  0
ENDSEC
  0
EOF
