  0
SECTION
  2
HEADER
  9
$LIMMIN
 10
452.075256
 20
-44.562508
  9
$LIMMAX
 10
766.949829
 20
47.055523
  9
$EXTMIN
 10
452.075256
 20
-44.562508
  9
$EXTMAX
 10
766.949829
 20
47.055523
  0
ENDSEC
  0
SECTION
  2
TABLES
  0
TABLE
  2
LTYPE
 70
     3
  0
LTYPE
  2
CONTINUOUS
 70
    64
  3
Ausgezogene Linie
 72
    65
 73
     0
 40
0.0
  0
LTYPE
  2
DASHED
 70
    64
  3
__ __ __ __ __ __ __ __ __ __ __ __ __ __ __
 72
    65
 73
     2
 40
0.75
 49
0.5
 49
-0.25
  0
LTYPE
  2
DASHDOT
 70
    64
  3
__ . __ . __ . __ . __ . __ . __ . __ . __ . __
 72
    65
 73
     4
 40
1.0
 49
0.5
 49
-0.25
 49
0.0
 49
-0.25
  0
ENDTAB
  0
TABLE
  2
LAYER
 70
     4
  0
LAYER
  2
LC-003-002-----0
 70
    64
 62
     7
  6
CONTINUOUS
  0
LAYER
  2
LC-004-006-----0
 70
    64
 62
     7
  6
CONTINUOUS
  0
LAYER
  2
LC-008-003-----0
 70
    64
 62
     7
  6
CONTINUOUS
  0
LAYER
  2
LC-006-012-----0
 70
    64
 62
     7
  6
CONTINUOUS
  0
ENDTAB
  0
TABLE
  2
STYLE
 70
     1
  0
STYLE
  2
TXT8
 70
    64
 40
0.0
 41
1.0
 50
0.0
 71
     0
 42
3.500000
  3
TXT8
  4

  0
ENDTAB
  0
ENDSEC
  0
SECTION
  2
BLOCKS
  0
ENDSEC
  0
SECTION
  2
ENTITIES
  0
LINE
  8
LC-004-006-----0
 62
     2
  6
DASHDOT
 10
452.075256
 20
-0.299414
 11
625.600342
 21
-0.299414
  0
LINE
  8
LC-003-002-----0
 62
     1
  6
CONTINUOUS
 10
462.615204
 20
24.700586
 11
493.331696
 21
24.700586
  0
LINE
  8
LC-003-002-----0
 62
     1
  6
CONTINUOUS
 10
462.178772
 20
-25.299414
 11
493.331696
 21
-25.299414
  0
LINE
  8
LC-003-002-----0
 62
     1
  6
CONTINUOUS
 10
493.331696
 20
35.700584
 11
493.331696
 21
-36.299416
  0
LINE
  8
LC-003-002-----0
 62
     1
  6
CONTINUOUS
 10
593.331665
 20
35.700584
 11
593.331665
 21
-36.299416
  0
LINE
  8
LC-003-002-----0
 62
     1
  6
CONTINUOUS
 10
494.831696
 20
37.200584
 11
504.681702
 21
37.200584
  0
LINE
  8
LC-003-002-----0
 62
     1
  6
CONTINUOUS
 10
507.331696
 20
37.200584
 11
579.331665
 21
37.200584
  0
LINE
  8
LC-003-002-----0
 62
     1
  6
CONTINUOUS
 10
494.831696
 20
-37.799416
 11
504.681702
 21
-37.799416
  0
LINE
  8
LC-006-012-----0
 62
     2
  6
CONTINUOUS
 10
462.178772
 20
-25.299414
 11
464.193390
 21
-13.799951
  0
LINE
  8
LC-006-012-----0
 62
     2
  6
CONTINUOUS
 10
464.193390
 20
-13.799951
 11
458.832855
 21
5.900476
  0
LINE
  8
LC-006-012-----0
 62
     2
  6
CONTINUOUS
 10
458.832855
 20
5.900477
 11
462.615204
 21
24.700586
  0
LINE
  8
LC-006-012-----0
 62
     2
  6
CONTINUOUS
 10
622.635986
 20
-25.299414
 11
620.220215
 21
-15.424728
  0
LINE
  8
LC-006-012-----0
 62
     2
  6
CONTINUOUS
 10
620.220215
 20
-15.424728
 11
623.135620
 21
8.608440
  0
LINE
  8
LC-006-012-----0
 62
     2
  6
CONTINUOUS
 10
623.135620
 20
8.608440
 11
621.305969
 21
24.700586
  0
LINE
  8
LC-008-003-----0
 62
     2
  6
DASHED
 10
493.331696
 20
24.700586
 11
593.331665
 21
24.700586
  0
LINE
  8
LC-003-002-----0
 62
     1
  6
CONTINUOUS
 10
593.331665
 20
24.700586
 11
621.305969
 21
24.700586
  0
LINE
  8
LC-008-003-----0
 62
     2
  6
DASHED
 10
493.331696
 20
-25.299414
 11
593.331665
 21
-25.299414
  0
LINE
  8
LC-003-002-----0
 62
     1
  6
CONTINUOUS
 10
593.331665
 20
-25.299414
 11
622.635986
 21
-25.299414
  0
LINE
  8
LC-003-002-----0
 62
     1
  6
CONTINUOUS
 10
579.331665
 20
-37.799416
 11
579.331665
 21
37.200584
  0
LINE
  8
LC-003-002-----0
 62
     1
  6
CONTINUOUS
 10
507.331696
 20
-37.799416
 11
507.331696
 21
37.200584
  0
LINE
  8
LC-003-002-----0
 62
     1
  6
CONTINUOUS
 10
581.981689
 20
-37.799416
 11
581.981689
 21
37.200584
  0
LINE
  8
LC-003-002-----0
 62
     1
  6
CONTINUOUS
 10
504.681702
 20
-37.799416
 11
504.681702
 21
37.200584
  0
LINE
  8
LC-003-002-----0
 62
     1
  6
CONTINUOUS
 10
507.331696
 20
-37.799416
 11
579.331665
 21
-37.799416
  0
LINE
  8
LC-003-002-----0
 62
     1
  6
CONTINUOUS
 10
581.981689
 20
-37.799416
 11
591.831665
 21
-37.799416
  0
LINE
  8
LC-003-002-----0
 62
     1
  6
CONTINUOUS
 10
581.981689
 20
37.200584
 11
591.831665
 21
37.200584
  0
LINE
  8
LC-003-002-----0
 62
     1
  6
CONTINUOUS
 10
504.681702
 20
35.700584
 11
507.331696
 21
35.700584
  0
LINE
  8
LC-003-002-----0
 62
     1
  6
CONTINUOUS
 10
579.331665
 20
35.700584
 11
581.981689
 21
35.700584
  0
LINE
  8
LC-003-002-----0
 62
     1
  6
CONTINUOUS
 10
579.331665
 20
-36.299416
 11
581.981689
 21
-36.299416
  0
LINE
  8
LC-003-002-----0
 62
     1
  6
CONTINUOUS
 10
504.681702
 20
-36.299416
 11
507.331696
 21
-36.299416
  0
ARC
  8
LC-003-002-----0
 62
     1
  6
CONTINUOUS
 10
494.831696
 20
35.700584
 40
1.500000
 50
90.000003
 51
180.000009
  0
ARC
  8
LC-003-002-----0
 62
     1
  6
CONTINUOUS
 10
494.831696
 20
-36.299416
 40
1.500000
 50
180.000009
 51
269.999997
  0
ARC
  8
LC-003-002-----0
 62
     1
  6
CONTINUOUS
 10
591.831665
 20
-36.299416
 40
1.500000
 50
269.999997
 51
0.000000
  0
ARC
  8
LC-003-002-----0
 62
     1
  6
CONTINUOUS
 10
591.831665
 20
35.700584
 40
1.500000
 50
0.000000
 51
90.000003
  0
LINE
  8
LC-004-006-----0
 62
     2
  6
DASHDOT
 10
670.980896
 20
-0.299414
 11
766.949829
 21
-0.299414
  0
LINE
  8
LC-004-006-----0
 62
     2
  6
DASHDOT
 10
717.676514
 20
47.055523
 11
717.676514
 21
-44.562508
  0
CIRCLE
  8
LC-003-002-----0
 62
     1
  6
CONTINUOUS
 10
717.676514
 20
-0.299414
 40
25.000000
  0
CIRCLE
  8
LC-003-002-----0
 62
     1
  6
CONTINUOUS
 10
717.676514
 20
-0.299414
 40
37.500000
  0
CIRCLE
  8
LC-003-002-----0
 62
     1
  6
CONTINUOUS
 10
717.676514
 20
-0.299414
 40
33.000000
  0
ENDSEC
  0
EOF
