  0
SECTION
  2
HEADER
  9
$LIMMIN
 10
-284.910828
 20
345.348663
  9
$LIMMAX
 10
-124.906837
 20
379.583374
  9
$EXTMIN
 10
-284.910828
 20
345.348663
  9
$EXTMAX
 10
-124.906837
 20
379.583374
  0
ENDSEC
  0
SECTION
  2
TABLES
  0
TABLE
  2
LTYPE
 70
     3
  0
LTYPE
  2
CONTINUOUS
 70
    64
  3
Ausgezogene Linie
 72
    65
 73
     0
 40
0.0
  0
LTYPE
  2
DASHED
 70
    64
  3
__ __ __ __ __ __ __ __ __ __ __ __ __ __ __
 72
    65
 73
     2
 40
0.75
 49
0.5
 49
-0.25
  0
LTYPE
  2
DASHDOT
 70
    64
  3
__ . __ . __ . __ . __ . __ . __ . __ . __ . __
 72
    65
 73
     4
 40
1.0
 49
0.5
 49
-0.25
 49
0.0
 49
-0.25
  0
ENDTAB
  0
TABLE
  2
LAYER
 70
     4
  0
LAYER
  2
LC-003-002-----0
 70
    64
 62
     7
  6
CONTINUOUS
  0
LAYER
  2
LC-004-006-----0
 70
    64
 62
     7
  6
CONTINUOUS
  0
LAYER
  2
LC-008-003-----0
 70
    64
 62
     7
  6
CONTINUOUS
  0
LAYER
  2
LC-006-012-----0
 70
    64
 62
     7
  6
CONTINUOUS
  0
ENDTAB
  0
TABLE
  2
STYLE
 70
     1
  0
STYLE
  2
TXT8
 70
    64
 40
0.0
 41
1.0
 50
0.0
 71
     0
 42
3.500000
  3
TXT8
  4

  0
ENDTAB
  0
ENDSEC
  0
SECTION
  2
BLOCKS
  0
ENDSEC
  0
SECTION
  2
ENTITIES
  0
LINE
  8
LC-004-006-----0
 62
     2
  6
DASHDOT
 10
-162.568542
 20
361.092499
 11
-124.906837
 21
361.092499
  0
LINE
  8
LC-004-006-----0
 62
     2
  6
DASHDOT
 10
-144.379929
 20
379.583374
 11
-144.379929
 21
345.348663
  0
ARC
  8
LC-003-002-----0
 62
     1
  6
CONTINUOUS
 10
-144.379929
 20
361.092499
 40
13.000000
 50
308.999999
 51
231.000007
  0
CIRCLE
  8
LC-003-002-----0
 62
     1
  6
CONTINUOUS
 10
-144.379929
 20
361.092499
 40
8.000000
  0
LINE
  8
LC-003-002-----0
 62
     1
  6
CONTINUOUS
 10
-139.188034
 20
354.681030
 11
-136.198761
 21
350.989594
  0
ARC
  8
LC-003-002-----0
 62
     1
  6
CONTINUOUS
 10
-144.379929
 20
361.092499
 40
8.250000
 50
308.999999
 51
231.000007
  0
LINE
  8
LC-003-002-----0
 62
     1
  6
CONTINUOUS
 10
-149.571823
 20
354.681030
 11
-152.561096
 21
350.989594
  0
ARC
  8
LC-003-002-----0
 62
     1
  6
CONTINUOUS
 10
-258.958374
 20
373.342499
 40
0.750000
 50
90.000003
 51
180.000009
  0
ARC
  8
LC-003-002-----0
 62
     1
  6
CONTINUOUS
 10
-258.958374
 20
351.739594
 40
0.750000
 50
180.000009
 51
269.999997
  0
ARC
  8
LC-003-002-----0
 62
     1
  6
CONTINUOUS
 10
-224.458389
 20
351.739594
 40
0.750000
 50
269.999997
 51
0.000000
  0
ARC
  8
LC-003-002-----0
 62
     1
  6
CONTINUOUS
 10
-224.458389
 20
373.342499
 40
0.750000
 50
0.000000
 51
90.000003
  0
LINE
  8
LC-004-006-----0
 62
     2
  6
DASHDOT
 10
-284.910828
 20
361.092499
 11
-198.957062
 21
361.092499
  0
LINE
  8
LC-003-002-----0
 62
     1
  6
CONTINUOUS
 10
-258.958374
 20
374.092499
 11
-254.008408
 21
374.092499
  0
LINE
  8
LC-003-002-----0
 62
     1
  6
CONTINUOUS
 10
-258.958374
 20
350.989594
 11
-254.008408
 21
350.989594
  0
LINE
  8
LC-003-002-----0
 62
     1
  6
CONTINUOUS
 10
-259.708374
 20
351.739594
 11
-259.708374
 21
373.342499
  0
LINE
  8
LC-003-002-----0
 62
     1
  6
CONTINUOUS
 10
-223.708389
 20
351.739594
 11
-223.708389
 21
373.342499
  0
LINE
  8
LC-003-002-----0
 62
     1
  6
CONTINUOUS
 10
-280.853516
 20
369.092499
 11
-259.708374
 21
369.092499
  0
LINE
  8
LC-003-002-----0
 62
     1
  6
CONTINUOUS
 10
-281.564728
 20
353.092499
 11
-259.708374
 21
353.092499
  0
LINE
  8
LC-006-012-----0
 62
     2
  6
CONTINUOUS
 10
-281.564728
 20
353.092499
 11
-280.578705
 21
357.182800
  0
LINE
  8
LC-006-012-----0
 62
     2
  6
CONTINUOUS
 10
-280.578705
 20
357.182800
 11
-281.689972
 21
365.954010
  0
LINE
  8
LC-006-012-----0
 62
     2
  6
CONTINUOUS
 10
-281.689972
 20
365.954010
 11
-280.853516
 21
369.092499
  0
LINE
  8
LC-006-012-----0
 62
     2
  6
CONTINUOUS
 10
-203.520782
 20
353.092499
 11
-202.971375
 21
357.761566
  0
LINE
  8
LC-006-012-----0
 62
     2
  6
CONTINUOUS
 10
-202.971375
 20
357.761566
 11
-204.875153
 21
366.036682
  0
LINE
  8
LC-006-012-----0
 62
     2
  6
CONTINUOUS
 10
-204.875153
 20
366.036682
 11
-204.391251
 21
369.092499
  0
LINE
  8
LC-008-003-----0
 62
     2
  6
DASHED
 10
-259.708374
 20
369.092499
 11
-223.708405
 21
369.092499
  0
LINE
  8
LC-003-002-----0
 62
     1
  6
CONTINUOUS
 10
-223.708389
 20
369.092499
 11
-204.391251
 21
369.092499
  0
LINE
  8
LC-008-003-----0
 62
     2
  6
DASHED
 10
-259.708374
 20
353.092499
 11
-223.708405
 21
353.092499
  0
LINE
  8
LC-003-002-----0
 62
     1
  6
CONTINUOUS
 10
-223.708389
 20
353.092499
 11
-203.520782
 21
353.092499
  0
LINE
  8
LC-003-002-----0
 62
     1
  6
CONTINUOUS
 10
-252.708389
 20
374.092499
 11
-230.708389
 21
374.092499
  0
LINE
  8
LC-003-002-----0
 62
     1
  6
CONTINUOUS
 10
-230.708389
 20
350.989594
 11
-230.708389
 21
374.092499
  0
LINE
  8
LC-003-002-----0
 62
     1
  6
CONTINUOUS
 10
-252.708389
 20
350.989594
 11
-252.708389
 21
374.092499
  0
LINE
  8
LC-003-002-----0
 62
     1
  6
CONTINUOUS
 10
-229.408386
 20
350.989594
 11
-229.408386
 21
374.092499
  0
LINE
  8
LC-003-002-----0
 62
     1
  6
CONTINUOUS
 10
-254.008392
 20
350.989594
 11
-254.008392
 21
374.092499
  0
LINE
  8
LC-003-002-----0
 62
     1
  6
CONTINUOUS
 10
-229.408386
 20
374.092499
 11
-224.458389
 21
374.092499
  0
LINE
  8
LC-003-002-----0
 62
     1
  6
CONTINUOUS
 10
-229.408386
 20
350.989594
 11
-224.458389
 21
350.989594
  0
LINE
  8
LC-003-002-----0
 62
     1
  6
CONTINUOUS
 10
-252.708389
 20
350.989594
 11
-230.708389
 21
350.989594
  0
LINE
  8
LC-003-002-----0
 62
     1
  6
CONTINUOUS
 10
-254.008392
 20
373.342499
 11
-252.708389
 21
373.342499
  0
LINE
  8
LC-003-002-----0
 62
     1
  6
CONTINUOUS
 10
-230.708389
 20
373.342499
 11
-229.408386
 21
373.342499
  0
LINE
  8
LC-003-002-----0
 62
     1
  6
CONTINUOUS
 10
-230.708389
 20
351.739594
 11
-229.408386
 21
351.739594
  0
LINE
  8
LC-003-002-----0
 62
     1
  6
CONTINUOUS
 10
-254.008392
 20
351.739594
 11
-252.708389
 21
351.739594
  0
ARC
  8
LC-003-002-----0
 62
     1
  6
CONTINUOUS
 10
-144.379929
 20
361.092499
 40
11.000000
 50
308.999999
 51
231.000007
  0
LINE
  8
LC-008-003-----0
 62
     2
  6
DASHED
 10
-156.379929
 20
361.842499
 11
-152.595764
 21
361.842499
  0
LINE
  8
LC-008-003-----0
 62
     2
  6
DASHED
 10
-156.379929
 20
360.342499
 11
-152.595764
 21
360.342499
  0
LINE
  8
LC-008-003-----0
 62
     2
  6
DASHED
 10
-157.254715
 20
359.292480
 11
-156.379929
 21
359.292480
  0
LINE
  8
LC-008-003-----0
 62
     2
  6
DASHED
 10
-157.254715
 20
362.892487
 11
-156.379929
 21
362.892487
  0
LINE
  8
LC-004-006-----0
 62
     2
  6
DASHDOT
 10
-241.708389
 20
364.577362
 11
-241.708389
 21
357.637115
  0
LINE
  8
LC-008-003-----0
 62
     2
  6
DASHED
 10
-156.379929
 20
359.292480
 11
-156.379929
 21
362.892487
  0
CIRCLE
  8
LC-008-003-----0
 62
     2
  6
DASHED
 10
-241.708389
 20
361.092499
 40
1.800000
  0
CIRCLE
  8
LC-008-003-----0
 62
     2
  6
DASHED
 10
-241.708389
 20
361.092499
 40
0.750000
  0
ENDSEC
  0
EOF
