  0
SECTION
  2
HEADER
  9
$LIMMIN
 10
-284.107788
 20
229.603546
  9
$LIMMAX
 10
-106.693428
 20
267.889374
  9
$EXTMIN
 10
-284.107788
 20
229.603546
  9
$EXTMAX
 10
-106.693428
 20
267.889374
  0
ENDSEC
  0
SECTION
  2
TABLES
  0
TABLE
  2
LTYPE
 70
     3
  0
LTYPE
  2
CONTINUOUS
 70
    64
  3
Ausgezogene Linie
 72
    65
 73
     0
 40
0.0
  0
LTYPE
  2
DASHED
 70
    64
  3
__ __ __ __ __ __ __ __ __ __ __ __ __ __ __
 72
    65
 73
     2
 40
0.75
 49
0.5
 49
-0.25
  0
LTYPE
  2
DASHDOT
 70
    64
  3
__ . __ . __ . __ . __ . __ . __ . __ . __ . __
 72
    65
 73
     4
 40
1.0
 49
0.5
 49
-0.25
 49
0.0
 49
-0.25
  0
ENDTAB
  0
TABLE
  2
LAYER
 70
     4
  0
LAYER
  2
LC-003-002-----0
 70
    64
 62
     7
  6
CONTINUOUS
  0
LAYER
  2
LC-004-006-----0
 70
    64
 62
     7
  6
CONTINUOUS
  0
LAYER
  2
LC-008-003-----0
 70
    64
 62
     7
  6
CONTINUOUS
  0
LAYER
  2
LC-006-012-----0
 70
    64
 62
     7
  6
CONTINUOUS
  0
ENDTAB
  0
TABLE
  2
STYLE
 70
     1
  0
STYLE
  2
TXT8
 70
    64
 40
0.0
 41
1.0
 50
0.0
 71
     0
 42
3.500000
  3
TXT8
  4

  0
ENDTAB
  0
ENDSEC
  0
SECTION
  2
BLOCKS
  0
ENDSEC
  0
SECTION
  2
ENTITIES
  0
LINE
  8
LC-004-006-----0
 62
     2
  6
DASHDOT
 10
-146.678711
 20
247.676102
 11
-106.693428
 21
247.676102
  0
LINE
  8
LC-004-006-----0
 62
     2
  6
DASHDOT
 10
-126.572685
 20
267.889374
 11
-126.572685
 21
229.603546
  0
CIRCLE
  8
LC-003-002-----0
 62
     1
  6
CONTINUOUS
 10
-126.572685
 20
247.676102
 40
10.000000
  0
ARC
  8
LC-003-002-----0
 62
     1
  6
CONTINUOUS
 10
-126.572685
 20
247.676102
 40
16.000000
 50
299.999998
 51
239.999997
  0
ARC
  8
LC-003-002-----0
 62
     1
  6
CONTINUOUS
 10
-126.572685
 20
247.676102
 40
10.250000
 50
299.999998
 51
239.999997
  0
LINE
  8
LC-003-002-----0
 62
     1
  6
CONTINUOUS
 10
-121.447685
 20
238.799332
 11
-118.572685
 21
233.819687
  0
LINE
  8
LC-003-002-----0
 62
     1
  6
CONTINUOUS
 10
-131.697678
 20
238.799332
 11
-134.572678
 21
233.819687
  0
ARC
  8
LC-003-002-----0
 62
     1
  6
CONTINUOUS
 10
-258.958374
 20
262.926086
 40
0.750000
 50
90.000003
 51
180.000009
  0
ARC
  8
LC-003-002-----0
 62
     1
  6
CONTINUOUS
 10
-258.958374
 20
234.569687
 40
0.750000
 50
180.000009
 51
269.999997
  0
ARC
  8
LC-003-002-----0
 62
     1
  6
CONTINUOUS
 10
-215.458389
 20
234.569687
 40
0.750000
 50
269.999997
 51
0.000000
  0
ARC
  8
LC-003-002-----0
 62
     1
  6
CONTINUOUS
 10
-215.458389
 20
262.926086
 40
0.750000
 50
0.000000
 51
90.000003
  0
LINE
  8
LC-004-006-----0
 62
     2
  6
DASHDOT
 10
-284.107788
 20
247.676102
 11
-187.337036
 21
247.676102
  0
LINE
  8
LC-003-002-----0
 62
     1
  6
CONTINUOUS
 10
-258.958374
 20
263.676086
 11
-252.808411
 21
263.676086
  0
LINE
  8
LC-003-002-----0
 62
     1
  6
CONTINUOUS
 10
-258.958374
 20
233.819687
 11
-252.808411
 21
233.819687
  0
LINE
  8
LC-003-002-----0
 62
     1
  6
CONTINUOUS
 10
-259.708374
 20
234.569687
 11
-259.708374
 21
262.926086
  0
LINE
  8
LC-003-002-----0
 62
     1
  6
CONTINUOUS
 10
-214.708389
 20
234.569687
 11
-214.708389
 21
262.926086
  0
LINE
  8
LC-003-002-----0
 62
     1
  6
CONTINUOUS
 10
-281.592621
 20
257.676086
 11
-259.708374
 21
257.676086
  0
LINE
  8
LC-003-002-----0
 62
     1
  6
CONTINUOUS
 10
-282.610046
 20
237.676102
 11
-259.708374
 21
237.676102
  0
LINE
  8
LC-008-003-----0
 62
     2
  6
DASHED
 10
-259.708374
 20
257.676086
 11
-214.708405
 21
257.676086
  0
LINE
  8
LC-003-002-----0
 62
     1
  6
CONTINUOUS
 10
-214.708389
 20
257.676086
 11
-192.755478
 21
257.676086
  0
LINE
  8
LC-008-003-----0
 62
     2
  6
DASHED
 10
-259.708374
 20
237.676102
 11
-214.708405
 21
237.676102
  0
LINE
  8
LC-003-002-----0
 62
     1
  6
CONTINUOUS
 10
-214.708389
 20
237.676102
 11
-191.418900
 21
237.676102
  0
LINE
  8
LC-006-012-----0
 62
     2
  6
CONTINUOUS
 10
-282.610046
 20
237.676102
 11
-281.127075
 21
243.364014
  0
LINE
  8
LC-006-012-----0
 62
     2
  6
CONTINUOUS
 10
-281.127075
 20
243.364014
 11
-282.836182
 21
254.281387
  0
LINE
  8
LC-006-012-----0
 62
     2
  6
CONTINUOUS
 10
-282.836182
 20
254.281387
 11
-281.592621
 21
257.676086
  0
LINE
  8
LC-006-012-----0
 62
     2
  6
CONTINUOUS
 10
-191.418900
 20
237.676102
 11
-192.778320
 21
244.088837
  0
LINE
  8
LC-006-012-----0
 62
     2
  6
CONTINUOUS
 10
-192.778320
 20
244.088837
 11
-191.811066
 21
254.191254
  0
LINE
  8
LC-006-012-----0
 62
     2
  6
CONTINUOUS
 10
-191.811066
 20
254.191254
 11
-192.755478
 21
257.676086
  0
LINE
  8
LC-003-002-----0
 62
     1
  6
CONTINUOUS
 10
-223.208389
 20
233.819687
 11
-223.208389
 21
263.676086
  0
LINE
  8
LC-003-002-----0
 62
     1
  6
CONTINUOUS
 10
-251.208389
 20
233.819687
 11
-251.208389
 21
263.676086
  0
LINE
  8
LC-003-002-----0
 62
     1
  6
CONTINUOUS
 10
-221.608383
 20
233.819687
 11
-221.608383
 21
263.676086
  0
LINE
  8
LC-003-002-----0
 62
     1
  6
CONTINUOUS
 10
-252.808395
 20
233.819687
 11
-252.808395
 21
263.676086
  0
LINE
  8
LC-003-002-----0
 62
     1
  6
CONTINUOUS
 10
-251.208389
 20
263.676086
 11
-223.208389
 21
263.676086
  0
LINE
  8
LC-003-002-----0
 62
     1
  6
CONTINUOUS
 10
-251.208389
 20
233.819687
 11
-223.208389
 21
233.819687
  0
LINE
  8
LC-003-002-----0
 62
     1
  6
CONTINUOUS
 10
-221.608383
 20
233.819687
 11
-215.458389
 21
233.819687
  0
LINE
  8
LC-003-002-----0
 62
     1
  6
CONTINUOUS
 10
-221.608383
 20
263.676086
 11
-215.458389
 21
263.676086
  0
LINE
  8
LC-003-002-----0
 62
     1
  6
CONTINUOUS
 10
-252.808395
 20
262.826111
 11
-251.208389
 21
262.826111
  0
LINE
  8
LC-003-002-----0
 62
     1
  6
CONTINUOUS
 10
-223.208389
 20
262.826111
 11
-221.608383
 21
262.826111
  0
LINE
  8
LC-003-002-----0
 62
     1
  6
CONTINUOUS
 10
-223.208389
 20
234.669693
 11
-221.608383
 21
234.669693
  0
LINE
  8
LC-003-002-----0
 62
     1
  6
CONTINUOUS
 10
-252.808395
 20
234.669693
 11
-251.208389
 21
234.669693
  0
ARC
  8
LC-003-002-----0
 62
     1
  6
CONTINUOUS
 10
-126.572685
 20
247.676102
 40
14.000000
 50
299.999998
 51
239.999997
  0
LINE
  8
LC-008-003-----0
 62
     2
  6
DASHED
 10
-141.372681
 20
248.426102
 11
-136.795212
 21
248.426102
  0
LINE
  8
LC-008-003-----0
 62
     2
  6
DASHED
 10
-141.372681
 20
246.926102
 11
-136.795212
 21
246.926102
  0
LINE
  8
LC-008-003-----0
 62
     2
  6
DASHED
 10
-142.471115
 20
249.476105
 11
-141.372681
 21
249.476105
  0
LINE
  8
LC-008-003-----0
 62
     2
  6
DASHED
 10
-142.471115
 20
245.876099
 11
-141.372681
 21
245.876099
  0
LINE
  8
LC-004-006-----0
 62
     2
  6
DASHDOT
 10
-237.208389
 20
251.200775
 11
-237.208389
 21
244.038162
  0
LINE
  8
LC-008-003-----0
 62
     2
  6
DASHED
 10
-141.372681
 20
245.876099
 11
-141.372681
 21
249.476105
  0
CIRCLE
  8
LC-008-003-----0
 62
     2
  6
DASHED
 10
-237.208389
 20
247.676102
 40
0.750000
  0
CIRCLE
  8
LC-008-003-----0
 62
     2
  6
DASHED
 10
-237.208389
 20
247.676102
 40
1.800000
  0
ENDSEC
  0
EOF
