  0
SECTION
  2
HEADER
  9
$LIMMIN
 10
41.030487
 20
422.196045
  9
$LIMMAX
 10
349.993835
 20
513.814026
  9
$EXTMIN
 10
41.030487
 20
422.196045
  9
$EXTMAX
 10
349.993835
 20
513.814026
  0
ENDSEC
  0
SECTION
  2
TABLES
  0
TABLE
  2
LTYPE
 70
     3
  0
LTYPE
  2
CONTINUOUS
 70
    64
  3
Ausgezogene Linie
 72
    65
 73
     0
 40
0.0
  0
LTYPE
  2
DASHED
 70
    64
  3
__ __ __ __ __ __ __ __ __ __ __ __ __ __ __
 72
    65
 73
     2
 40
0.75
 49
0.5
 49
-0.25
  0
LTYPE
  2
DASHDOT
 70
    64
  3
__ . __ . __ . __ . __ . __ . __ . __ . __ . __
 72
    65
 73
     4
 40
1.0
 49
0.5
 49
-0.25
 49
0.0
 49
-0.25
  0
ENDTAB
  0
TABLE
  2
LAYER
 70
     4
  0
LAYER
  2
LC-003-002-----0
 70
    64
 62
     7
  6
CONTINUOUS
  0
LAYER
  2
LC-004-006-----0
 70
    64
 62
     7
  6
CONTINUOUS
  0
LAYER
  2
LC-008-003-----0
 70
    64
 62
     7
  6
CONTINUOUS
  0
LAYER
  2
LC-006-012-----0
 70
    64
 62
     7
  6
CONTINUOUS
  0
ENDTAB
  0
TABLE
  2
STYLE
 70
     1
  0
STYLE
  2
TXT8
 70
    64
 40
0.0
 41
1.0
 50
0.0
 71
     0
 42
3.500000
  3
TXT8
  4

  0
ENDTAB
  0
ENDSEC
  0
SECTION
  2
BLOCKS
  0
ENDSEC
  0
SECTION
  2
ENTITIES
  0
LINE
  8
LC-004-006-----0
 62
     2
  6
DASHDOT
 10
254.024902
 20
466.459106
 11
349.993835
 21
466.459106
  0
LINE
  8
LC-004-006-----0
 62
     2
  6
DASHDOT
 10
300.720551
 20
513.814026
 11
300.720551
 21
422.196045
  0
CIRCLE
  8
LC-003-002-----0
 62
     1
  6
CONTINUOUS
 10
300.720551
 20
466.459106
 40
25.000000
  0
ARC
  8
LC-003-002-----0
 62
     1
  6
CONTINUOUS
 10
300.720551
 20
466.459106
 40
37.500000
 50
294.999999
 51
244.999996
  0
ARC
  8
LC-003-002-----0
 62
     1
  6
CONTINUOUS
 10
300.720551
 20
466.459106
 40
26.000000
 50
294.999999
 51
244.999996
  0
LINE
  8
LC-003-002-----0
 62
     1
  6
CONTINUOUS
 10
311.708618
 20
442.895111
 11
316.568726
 21
432.472565
  0
LINE
  8
LC-003-002-----0
 62
     1
  6
CONTINUOUS
 10
289.732452
 20
442.895111
 11
284.872345
 21
432.472565
  0
LINE
  8
LC-004-006-----0
 62
     2
  6
DASHDOT
 10
41.030487
 20
466.459106
 11
218.644333
 21
466.459106
  0
LINE
  8
LC-003-002-----0
 62
     1
  6
CONTINUOUS
 10
51.570438
 20
491.459106
 11
82.286911
 21
491.459106
  0
LINE
  8
LC-003-002-----0
 62
     1
  6
CONTINUOUS
 10
51.133991
 20
441.459106
 11
82.286911
 21
441.459106
  0
LINE
  8
LC-003-002-----0
 62
     1
  6
CONTINUOUS
 10
82.286911
 20
502.459106
 11
82.286911
 21
433.972565
  0
LINE
  8
LC-003-002-----0
 62
     1
  6
CONTINUOUS
 10
182.286911
 20
502.459106
 11
182.286911
 21
433.972565
  0
LINE
  8
LC-003-002-----0
 62
     1
  6
CONTINUOUS
 10
83.786911
 20
503.959106
 11
93.636909
 21
503.959106
  0
LINE
  8
LC-003-002-----0
 62
     1
  6
CONTINUOUS
 10
96.286911
 20
503.959106
 11
168.286911
 21
503.959106
  0
LINE
  8
LC-003-002-----0
 62
     1
  6
CONTINUOUS
 10
83.786911
 20
432.472565
 11
93.636909
 21
432.472565
  0
LINE
  8
LC-006-012-----0
 62
     2
  6
CONTINUOUS
 10
51.133991
 20
441.459106
 11
53.148624
 21
452.958588
  0
LINE
  8
LC-006-012-----0
 62
     2
  6
CONTINUOUS
 10
53.148624
 20
452.958588
 11
47.788067
 21
472.658997
  0
LINE
  8
LC-006-012-----0
 62
     2
  6
CONTINUOUS
 10
47.788067
 20
472.658997
 11
51.570438
 21
491.459106
  0
LINE
  8
LC-006-012-----0
 62
     2
  6
CONTINUOUS
 10
211.591187
 20
441.459106
 11
209.175430
 21
451.333801
  0
LINE
  8
LC-006-012-----0
 62
     2
  6
CONTINUOUS
 10
209.175430
 20
451.333801
 11
212.090820
 21
475.366974
  0
LINE
  8
LC-006-012-----0
 62
     2
  6
CONTINUOUS
 10
212.090820
 20
475.366974
 11
210.261215
 21
491.459106
  0
LINE
  8
LC-008-003-----0
 62
     2
  6
DASHED
 10
82.286911
 20
491.459106
 11
182.286911
 21
491.459106
  0
LINE
  8
LC-003-002-----0
 62
     1
  6
CONTINUOUS
 10
182.286911
 20
491.459106
 11
210.261215
 21
491.459106
  0
LINE
  8
LC-008-003-----0
 62
     2
  6
DASHED
 10
82.286911
 20
441.459106
 11
182.286911
 21
441.459106
  0
LINE
  8
LC-003-002-----0
 62
     1
  6
CONTINUOUS
 10
182.286911
 20
441.459106
 11
211.591187
 21
441.459106
  0
LINE
  8
LC-003-002-----0
 62
     1
  6
CONTINUOUS
 10
168.286911
 20
432.472565
 11
168.286911
 21
503.959106
  0
LINE
  8
LC-003-002-----0
 62
     1
  6
CONTINUOUS
 10
96.286911
 20
432.472565
 11
96.286911
 21
503.959106
  0
LINE
  8
LC-003-002-----0
 62
     1
  6
CONTINUOUS
 10
170.936905
 20
432.472565
 11
170.936905
 21
503.959106
  0
LINE
  8
LC-003-002-----0
 62
     1
  6
CONTINUOUS
 10
93.636909
 20
432.472565
 11
93.636909
 21
503.959106
  0
LINE
  8
LC-003-002-----0
 62
     1
  6
CONTINUOUS
 10
96.286911
 20
432.472565
 11
168.286911
 21
432.472565
  0
LINE
  8
LC-003-002-----0
 62
     1
  6
CONTINUOUS
 10
170.936905
 20
432.472565
 11
180.786911
 21
432.472565
  0
LINE
  8
LC-003-002-----0
 62
     1
  6
CONTINUOUS
 10
170.936905
 20
503.959106
 11
180.786911
 21
503.959106
  0
LINE
  8
LC-003-002-----0
 62
     1
  6
CONTINUOUS
 10
93.636909
 20
502.459106
 11
96.286911
 21
502.459106
  0
LINE
  8
LC-003-002-----0
 62
     1
  6
CONTINUOUS
 10
168.286911
 20
502.459106
 11
170.936905
 21
502.459106
  0
LINE
  8
LC-003-002-----0
 62
     1
  6
CONTINUOUS
 10
168.286911
 20
433.972565
 11
170.936905
 21
433.972565
  0
LINE
  8
LC-003-002-----0
 62
     1
  6
CONTINUOUS
 10
93.636909
 20
433.972565
 11
96.286911
 21
433.972565
  0
ARC
  8
LC-003-002-----0
 62
     1
  6
CONTINUOUS
 10
83.786911
 20
502.459106
 40
1.500000
 50
90.000003
 51
180.000009
  0
ARC
  8
LC-003-002-----0
 62
     1
  6
CONTINUOUS
 10
83.786911
 20
433.972565
 40
1.500000
 50
180.000009
 51
269.999997
  0
ARC
  8
LC-003-002-----0
 62
     1
  6
CONTINUOUS
 10
180.786911
 20
433.972565
 40
1.500000
 50
269.999997
 51
0.000000
  0
ARC
  8
LC-003-002-----0
 62
     1
  6
CONTINUOUS
 10
180.786911
 20
502.459106
 40
1.500000
 50
0.000000
 51
90.000003
  0
ARC
  8
LC-003-002-----0
 62
     1
  6
CONTINUOUS
 10
300.720551
 20
466.459106
 40
33.000000
 50
294.999999
 51
244.999996
  0
LINE
  8
LC-004-006-----0
 62
     2
  6
DASHDOT
 10
258.720917
 20
468.959106
 11
279.383942
 21
468.959106
  0
LINE
  8
LC-008-003-----0
 62
     2
  6
DASHED
 10
263.528992
 20
471.259125
 11
275.167450
 21
471.259125
  0
LINE
  8
LC-008-003-----0
 62
     2
  6
DASHED
 10
263.221069
 20
466.659119
 11
274.721313
 21
466.659119
  0
LINE
  8
LC-004-006-----0
 62
     2
  6
DASHDOT
 10
125.866714
 20
468.959106
 11
138.348892
 21
468.959106
  0
LINE
  8
LC-004-006-----0
 62
     2
  6
DASHDOT
 10
132.286911
 20
475.535309
 11
132.286911
 21
461.394287
  0
CIRCLE
  8
LC-008-003-----0
 62
     2
  6
DASHED
 10
132.286911
 20
468.959106
 40
2.300000
  0
ENDSEC
  0
EOF
